Papa Roach - Scars Chords & Tabs

 

Scars Chords & Tabs

Papa Roach Chords & Tabs

Version: 3 Type: Tab 0 ratings
1 star 2 stars 3 stars 4 stars 5 stars
comments

Scars Tab

   
Band- Papa Roach
Song- Scars

Tuning: | C# G# C# A# F# D# |

\"Intro\" | \"Bridge.02\"
D#|------------------|---------------------|
F#|------------------|---------------------|
A#|----------7~------|----------7~---------|
C#|-10~--5~--7~--3~--|-10~--5~--7~--3~-5-5-|
G#|-10~--5~--5~--3~--|-10~--5~--5~--3~-5-5-|
C#|-10~--5~------3~--|-10~--5~------3~-5-5-|

\"Verse\" | \"Bridge.01\"
D#|-----------------------------------|
F#|-----------------------------------|
A#|-----5-4-0-----5-4-----7-5-----7-5-|
C#|-7-7-7-7-7-2-2-2-5-3-3-3-7-5-5-5-9-|
G#|-7-7-7-7-7-2-2-2-2-3-3-3-3-5-5-5-5-|
C#|-7-7-7-7-7-2-2-2-2-3-3-3-3-5-5-5-5-|
[ Tab from: http://www.guitartabs.cc/tabs/p/papa_roach/scars_tab_ver_3.html ]
\"Chorus\"
D#|-------------------------------------------------------------------------------------------|
F#|-------------------------------------------------------------------------------------------|
A#|---------------------------------------------------7-7-7-7-7-7-7-7-7-7---------------------|
C#|-10-10-10-10-10-10-10-10-10-10-5-5-5-5-5-5-5-5-5-5-7-7-7-7-7-7-7-7-7-7-3-3-3-3-3-3-3-3-3-3-|
G#|-10-10-10-10-10-10-10-10-10-10-5-5-5-5-5-5-5-5-5-5-5-5-5-5-5-5-5-5-5-5-3-3-3-3-3-3-3-3-3-3-|
C#|-10-10-10-10-10-10-10-10-10-10-5-5-5-5-5-5-5-5-5-5-x-x-x-x-x-x-x-x-x-x-3-3-3-3-3-3-3-3-3-3-|

D#|-------------------------------------------------------------------------------------------|
F#|-------------------------------------------------------------------------------------------|
A#|---------------------------------------------------7-7-7-7-7-7-7-7-7-7---------------------|
C#|-10-10-10-10-10-10-10-10-10-10-5-5-5-5-5-5-5-5-5-5-7-7-7-7-7-7-7-7-7-7-3-3-3-3-3-5-5-5-5-5-|
G#|-10-10-10-10-10-10-10-10-10-10-5-5-5-5-5-5-5-5-5-5-5-5-5-5-5-5-5-5-5-5-3-3-3-3-3-5-5-5-5-5-|
C#|-10-10-10-10-10-10-10-10-10-10-5-5-5-5-5-5-5-5-5-5-x-x-x-x-x-x-x-x-x-x-3-3-3-3-3-5-5-5-5-5-|

\"Bridge.03\"
D#|-------------------------------------------------------------------------|
F#|-------------------------------------------------------------------------|
A#|-------------------------------------------------------------------------|
C#|-------------------------------------------------------------7-7-7-7-7-3-|
G#|---------------------------------------------------5-5-5-5-5-5-5-5-5-5-3-|
C#|-10-10-10-10-10-10-10-10-10-10-5-5-5-5-5-5-5-5-5-5-x-x-x-x-x-x-x-x-x-x-3-|
    *  *  *  *  *  *  *  *  *  *  * * * * * * * * * * * * * * *
\"End\"
D#|-----|
F#|-----|
A#|-----|
C#|-10-|
G#|-10-|
C#|-10-|
Comments