Papa Roach - Revenge Chords & Tabs

 

Revenge Chords & Tabs

Papa Roach Chords & Tabs

Version: 6 Type: Tab 0 ratings
1 star 2 stars 3 stars 4 stars 5 stars
comments

Revenge Tab

Revenge by Papa Roach (tune you guitar down a bit for this 
song)                       
     (0:01)                       p=pull off
-----------------                 h=hammer on              
-----------------                 x=scratch
----------------- 4 times
9-9-4-----5-5-4--
9-9-4-----5-5-4--
9-9-4-----5-5-4--

     (0:30)
-----------------
-----------------
----------------- 4 times
-5p4-------------
-5p4-------------
-5p4-------------

     (0:40)
----------------------
--7-5-7-7-6-----------(this is where you need to tune down
-4-----7-6------------your guitar some.)
----------------------
---------------------- 8 times
----------------------

     (1:00)
-----------------------
-----------------------
----------------------- 2 times
-9-9-4----5-5-4--------
-9-9-4----5-5-4--------
-9-9-4----5-5-4--------

     (1:10)
-----------------------
--7-5-7-7-6------------
-4-----7-6------------- 12 times
-----------------------
-----------------------
-----------------------

     (1:40)
-----------------------
-----------------------
----------------------- 4 times
-9-9-4----5-5-4--------
-9-9-4----5-5-4--------
-9-9-4----5-5-4--------

     (1:58)
--------------------------------------------------
--------------------------------------------------
--------------------------------------------------
-4-3-x-3-x-3--x-x-3-3-6-6--4-3-x-3-x-3-x-x-3-3-6-6
-4-3-x-3-x-3--x-x-3-3-6-6--4-3-x-3-x-3-x-x-3-3-6-6
-4-3-x-3-x-3--x-x-3-3-6-6--4-3-x-3-x-3-x-x-3-3-6-6
[ Tab from: http://www.guitartabs.cc/tabs/p/papa_roach/revenge_tab_ver_6.html ]
    (2:09)     Tremelo (pick extremely fast)
--------------------------------------------
----------12--------------------12----------
-9----8--------9----7-h8----8---------------
--------------------------------------------
--------------------------------------------
--------------------------------------------

------------------------------------------------------------
-----------12-------------------12------------------12-12-12
-9-----8-------9----7-h8----8--------9----7-h8----7-10-10-10
------------------------------------------------------------
------------------------------------------------------------
------------------------------------------------------------

-----------------------------------
----------12-----------------------
-9----8--------9-------------------
-----------------------------------
-----------------------------------
-----------------------------------

     (2:40)
---------------------
---------------------
--------------------- 8 times
-4-9-7-9-7-9-6-8----- 
-4-9-7-9-7-9-6-8-----
-4-7-5-7-7-7-6-6-----

     (3:00)
-----------------------------------
-----------------------------------
----------------------11-9-11------ 4 times
-9--9-9-9---8-8-8--9--11-9-11--1-6-
-9--9-9-9---8-8-8--9---9-7--9--1-6-
-9--9-9-9---8-8-8--9-----------1-6-

     (3:15)
------------------
------------------
------------------ 2 times
-9-9-4----5-5-4---
-9-9-4----5-5-4---
-9-9-4----5-5-4---

     (3:25)
------------------
--9-7-9-5-9-5-6---
-9----------------
------------------
------------------
------------------
Comments