Papa Roach - Revenge Chords & Tabs

 

Revenge Chords & Tabs

Papa Roach Chords & Tabs

Version: 4 Type: Tab 0 ratings
1 star 2 stars 3 stars 4 stars 5 stars
comments

Revenge Tab

   
Papa Roach,Revenge.
 Tabbed by Ronald,link005@hotmail.com.
  
/ slide


Intro
e------------------------------------|
B------------------------------------|
G------------------------------------|
D-9-9--4----------5-5--4-------------|  x 4
A-9-9--4----------5-5--4-------------|
D-9-9--4----------5-5--4-------------|

After Intro=\"remember the girl......abused with forks knives and razorblades
e------------------------------------|
B------------------------------------|
G------------------------------------|
D-5--/4------------------------------|  x4
A-5--/4------------------------------|
D-5--/4------------------------------|

Verse
e---2-0-2---2---2--------------------|
B-0-------3---2----------------------|
G------------------------------------|  x 8
D------------------------------------|
A------------------------------------|
D------------------------------------|

Chorus
e------------------------------------|
B------------------------------------|
G------------------------------------|
D-99-4--55-4-------------------------|
A-99-4--55-4-------------------------| 2
D-99-4--55-4-------------------------|

Verse x 12

Chorus x 4
[ Tab from: http://www.guitartabs.cc/tabs/p/papa_roach/revenge_tab_ver_4.html ]
Before Bridge
e------------------------------------|
B------------------------------------|
G------------------------------------|
D-5-4-4-4-4-4-5-4-4-4-4-4-9-4-4-4-4-4-5-4-4-4-4-4|
A-5-4-4-4-4-4-5-4-4-4-4-4-9-4-4-4-4-4-5-4-4-4-4-4|
D-5-4-4-4-4-4-5-4-4-4-4-4-9-4-4-4-4-4-5-4-4-4-4-4|

Bridge (with distortion)
e--------------------------------------------|
B-9----8-13---12-11--------------------------|
G--------------------------------------------|
D--------------------------------------------|
A--------------------------------------------|
D--------------------------------------------|

when he starts to say:\"dont you see that we are in danger, how will we stop it she´s attacking\"; goes this with distortion
e------------------------------------|
B------------------------------------|
G------------------------------------|
D---4-2-4-0-4---4--------------------| X 8
A-2-----------4----------------------|
D------------------------------------|

And then, above, without distortion x 4

Chorus

and that´s all I´m sure that´s right 
:: Ultimate Guitar Archive :: 
http://www.ultimate-guitar.com 



Comments