Papa Roach - Revenge Chords & Tabs

 

Revenge Chords & Tabs

Papa Roach Chords & Tabs

Version: 1 Type: Tab 0 ratings
1 star 2 stars 3 stars 4 stars 5 stars
comments

Revenge Tab

   
#----------------------------------PLEASE NOTE--------------------------------#
#This file is the author's own work and represents their interpretation of the#
#song. You may only use this file for private study, scholarship, or research.#
#-----------------------------------------------------------------------------#
#-- File created with Instab - http://www.pconline.com/~smcarey/instab.html --#
#-----------------------------------------------------------------------------#

Author/Artist: Papa Roach
Title: Revenge
Album: Infest (200)
Transcribed by: Chris Black
Email: paparoachster@gosympatico.ca

Standard Tuning Low to High (E A D G B E)

It took me awhile to figure this out so I hope it
works. it sounded pefect to me.

------------------------------------------------------------------------------
------------------------------------------------------------------------------
-4-4-4-----5-5\4-----4-4-4-----5-5\4-----4-4-4-----5-5\4-----4-4-4-----5-5\4--
-2-2-4-----5-5\4-----2-2-4-----5-5\4-----2-2-4-----5-5\4-----2-2-4-----5-5\4--
-2-2-2-----3-3\2-----2-2-2-----3-3\2-----2-2-2-----3-3\2-----2-2-2-----3-3\2--
-----2-----3-3\2---------2-----3-3\2---------2-----3-3\2---------2-----3-3\2--
                                                                              

------------------------------------------------------------------------------
------------------------------------------------------------------------------
-5\4----5\4----5\4----5\4-----------------------------------------------------
-5\4----5\4----5\4----5\4-----------------------------------------------------
-3\2----3\2----3\2----3\2-----------------------------------------------------
-3\2----3\2----3\2----3\2-----------------------------------------------------
                                                                              

------------------------------------------------------------------------------
------------------------------------------------------------------------------
------------------------------------------------------------------------------
---4---4-0-4---------4---4-0-4---------4---4-0-4---------4---4-4-0-4----------
-2---2-------4/5p--2---2-------4/5p--2---2-------4/5p--2---2---------4/5p-----
------------------------------------------------------------------------------
                                                                              

------------------------------------------------------------------------------
------------------------------------------------------------------------------
------------------------------------------------------------------------------
------------------------------------------------------------------------------
---4---4-0-4---------4---4-0-4---------4---4-0-4---------4---4-0-4------------
-2---2-------4/5p--2---2-------4/5p--2---2-------4/5p--2---2-------4/5p-------
                                                                              

------------------------------------------------------------------------------
------------------------------------------------------------------------------
-4-4-4---5-5\4---4-4-4---5-5\4------------------------------------------------
-2-2-4---5-5\4---2-2-4---5-5\4------------------------------------------------
-2-2-2---3-3\2---2-2-2---3-3\2------------------------------------------------
-----2---3-3\2-------2---3-3\2------------------------------------------------
                                                                              

------------------------------------------------------------------------------
------------------------------------------------------------------------------
------------------------------------------------------------------------------
------------------------------------------------------------------------------
---4---4-0-4---------4---4-0-4---------4---4-0-4---------4---4-0-4------------
-2---2-------4/5p--2---2-------4/5p--2---2-------4/5p--2---2-------4/5p-------
                                                                              

------------------------------------------------------------------------------
------------------------------------------------------------------------------
------------------------------------------------------------------------------
------------------------------------------------------------------------------
---4---4-0-4---------4---4-0-4---------4---4-0-4---------4---4-0-4------------
-2---2-------4/5p--2---2-------4/5p--2---2-------4/5p--2---2-------4/5p-------
                                                                              

------------------------------------------------------------------------------
------------------------------------------------------------------------------
------------------------------------------------------------------------------
------------------------------------------------------------------------------
---4---4-0-4---------4---4-0-4---------4---4-0-4---------4---4-0-4------------
-2---2-------4/5p--2---2-------4/5p--2---2-------4/5p--2---2-------4/5p-------
                                                                              

------------------------------------------------------------------------------
------------------------------------------------------------------------------
-4-4-4---5-5\4---4-4-4---5-5\4---4-4-4---5-5\4---4-4-4---5-5\4----------------
-2-2-4---5-5\4---2-2-4---5-5\4---2-2-4---5-5\4---2-2-4---5-5\4----------------
-2-2-2---3-3\2---2-2-2---3-3\2---2-2-2---3-3\2---2-2-2---3-3\2----------------
-----2---3-3\2-------2---3-3\2-------2---3-3\2-------2---3-3\2----------------
                                                                              
[ Tab from: http://www.guitartabs.cc/tabs/p/papa_roach/revenge_tab.html ]
------------------------------------------------------------------------------
------------------------------------------------------------------------------
-4-4-4-4-4/5\4-4-*-4-*-4-44-*-4/5\4-4-*-4-44-*-4-4-4-4-4-5\4-4-*-4-*-4-44-*---
-2-4-4-4-4/5\4-4-*-4-*-4-44-*-4/5\4-4-*-4-44-*-4-4-4-4-4-5\4-4-*-4-*-4-44-*---
-2-2-2-2-2/3\2-2-*-2-*-2-22-*-2/3\2-2-*-2-22-*-2-2-2-2-2-3\2-2-*-2-*-2-22-*---
---------2/3\2-2-*-2-*-2-22-*-2/3\2-2-*-2-22-*-2-2-2-2-2-3\2-2-*-2-*-2-22-*---
                                                                              

------------------------------------------------------------------------------
------------------------------------------------------------------------------
-4-5\4-4-*-4------------------------------------------------------------------
-4-5\4-4-*-4------------------------------------------------------------------
-2-3\2-2-*-2------------------------------------------------------------------
-2-3\2-2-*-2------------------------------------------------------------------
                                                                              

------------------------------------------------------------------------------
------------------------------------------------------------------------------
-2v-----4v---5v--4v----2v------4v---5v----------------------------------------
------------------------------------------------------------------------------
------------------------------------------------------------------------------
------------------------------------------------------------------------------
                                                                              

------------------------------------------------------------------------------
------------------------------------------------------------------------------
-2v-----4v---5v--4v----2v------4v---5v---4v----2v---4v--654-8-77-66-5---------
------------------------------------------------------------------------------
------------------------------------------------------------------------------
------------------------------------------------------------------------------
                                                                              

------------------------------------------------------------------------------
------------------------------------------------------------------------------
-2v-----4v---5v--4v-----------------------------------------------------------
------------------------------------------------------------------------------
------------------------------------------------------------------------------
------------------------------------------------------------------------------
                                                                              

------------------------------------------------------------------------------
------------------------------------------------------------------------------
------------------------------------------------------------------------------
---4-2-4-0-4--------4-2-4-0-4--------4-2-4-0-4--------4-2-4-0-4---------------
-2-4-2-4-0-4-4/5--2-4-2-4-0-4-4/5--2-4-2-4-0-4-4/5--2-4-2-4-0-4-4/5-----------
-2-----------4/5--2-----------4/5--2-----------4/5--2-----------4/5-----------
                                                                              

------------------------------------------------------------------------------
------------------------------------------------------------------------------
------------------------------------------------------------------------------
---4-2-4-0-4--------4-2-4-0-4--------4-2-4-0-4--------4-2-4-0-4---------------
-2-4-2-4-0-4-4/5--2-4-2-4-0-4-4/5--2-4-2-4-0-4-4/5--2-4-2-4-0-4-4/5-----------
-2-----------4/5--2-----------4/5--2-----------4/5--2-----------4/5-----------
                                                                              

------------------------------------------------------------------------------
------------------------------------------------------------------------------
------------------------------------------------------------------------------
---------44--44-2-4-0-4--------------44--44-2-4-0-4---------------------------
-2-2-22--44--44-2-4-0-4-4/5--2-2-22--44--44-2-4-0-4-4/5-----------------------
-2-2-22-----------------4/5--2-2-22-----------------4/5-----------------------
                                                                              

------------------------------------------------------------------------------
------------------------------------------------------------------------------
------------------------------------------------------------------------------
---------44--44-2-4-0-4--------------44--44-2-4-0-4---------------------------
-2-2-22--44--44-2-4-0-4-4/5--2-2-22--44--44-2-4-0-4-4/5-----------------------
-2-2-22-----------------4/5--2-2-22-----------------4/5-----------------------
                                                                              

------------------------------------------------------------------------------
------------------------------------------------------------------------------
-4-4-4--5-5\2--4-4-4--5-5\4---------------------------------------------------
-2-2-4--5-5\2--2-2-4--5-5\4---------------------------------------------------
-2-2-2--3-3\2--2-2-2--3-3\2---------------------------------------------------
-----2--3-3\2------2--3-3\2---------------------------------------------------
                                                                              

------------------------------------------------------------------------------
------------------------------------------------------------------------------
-5\4--------------------------------------------------------------------------
-5\4--------------------------------------------------------------------------
-3\2--------------------------------------------------------------------------
-3\2--------------------------------------------------------------------------
                                                                              

Comments