Papa Roach - Never Said It Chords & Tabs

 

Never Said It Chords & Tabs

Papa Roach Chords & Tabs

Version: 1 Type: Tab 0 ratings
1 star 2 stars 3 stars 4 stars 5 stars
comments

Never Said It Tab

Band- Papa Roach
Song- Never Said It
Album- Love Hate Tragedy
Tuning- Drop Db

------------------------------------------------------------------------------|
------------------------------------------------------------------------------|
------------------------------------------------------------------------------|
-8-8------0-0-0------8-8-8------0-0-0-----------------------------------------|
-8-8------0-0-0------8-8-8------0-0-0-----------------------------------------|
-8-8------0-0-0------8-8-8------0-0-0-----------------------------------------|
 Intro    P.M--                 P.M ^ Let Note Ring Out Muted

---------------------|--------------------------------------------------------|
---------------------|--------------------------------------------------------|
-10p9-10p9-10p9-10p9-|---------------------9/10\9\7---------------------------|
---------------------|-0-3-0-2h3-2--8-8----x--x-x-x---------------------------|
---------------------|-0-3-0-2h3-2--8-8--x-7/-8\7\5---------------------------|
---------------------|-0-3-0-2h3-2--8-8--x------------------------------------|
 Siren Noise in BG     Verse
[ Tab from: http://www.guitartabs.cc/tabs/p/papa_roach/never_said_it_tab.html ]
---------------------------|--------------------------------------------------|
---------------------------|--------------------------------------------------|
----------------7---7/9/10-|--------------------------------------5/7-7/9-10--|
-8-8-8-3-3-0--x-x-x-x-x-x--|-5--5-5-x-3--3-3-x-8--8-8-x-0--0-0--x-x-x-x-x--x--|
-8-8-8-3-3-0--x-5-x-5/7/8--|-5--5-5-x-3--3-3-x-8--8-8-x-0--0-0--x-3/5-5/7--8--|
-8-8-8-3-3-0--x---x--------|-5--5-5-x-3--3-3-x-8--8-8-x-0--0-0--x-------------|
 Pre-Chorus                  Chorus

------------------------------------------------------------------------------|
------------------------------------------------------------------------------|
------------------------7-----9-----10\7-----------------7-7-x-10--10-10-10---|
-8------5------3------0-x-0-0-x-0-0--x-x--/8-8-8-8-8-8-8-7-7-x-10--10-10-10---|
-8------5------3------0-5-0-0-7-0-0--8\5--/8-8-8-8-8-8-8-5-5-x--8---8--8--8---|
-8------5------3------0---0-0---0-0-------/8-8-8-8-8-8-8----------------------|
 Bridge          P.M. -   - -   - -

--------------------------------|---------------------------------------------|
--------------------------------|---------------------------------------------|
----------------5-5-x-7--7-7-7--|---------------------------------------------|
-/8-8-8-8-8-8-8-5-5-x-7--7-7-7--|-8-8----0-0-0-0------------------------------|
-/8-8-8-8-8-8-8-3-3-x-5--5-5-5--|-8-8----0-0-0-0------------------------------|
-/8-8-8-8-8-8-8-----------------|-8-8----0-0-0-0------------------------------|
                                  Ending PM-
ENJOY!!!!
Comments