Papa Roach - Life Is A Bullet Chords & Tabs

 

Life Is A Bullet Chords & Tabs

Papa Roach Chords & Tabs

Version: 8 Type: Tab 0 ratings
1 star 2 stars 3 stars 4 stars 5 stars
comments

Life Is A Bullet Tab

   
DATE: 02/20/03
BAND: Papa Roach
SONG: Life Is A Bullet
ALBUM: Lovehatetragedy
TUNING: Dropped D half full step down. (C#-Ab-C#-Gb-Bb-F#)
TABBED BY: Juan Ignacio Insua.

Hi everybody!! This is the third song I tab from Lovehatetragedy. This is a great song to play
and isn't hard. I've seen Papa Roach's live song and Jerry plays it excelent, this is just
like he plays it. For any comment or question about it please email me at zzzz02@tutopia.com
Enjoy it!! Check out my other Papa Roach's tabs!!!

Intro 1/Riff 1

This part has to be played eight times.

                  1st     time                       2nd and 6th time
-----------------------------------------------------------------------------
-----------------------------------------------------------------------------
-----------------------------------------------------------------------------
---------------10-10-10-10-10-10-10-10-------------------12-12-12-12---------
--------5/12--------------------------------------5/12---------------8-8-8-8-
-0-0---------------------------------------0-0-------------------------------

                3rd and 7th times                      4th     time      
---------------------------------------------------------------------------------
---------------------------------------------------------------------------------
---------------------------------------------------------------------------------
---------------10-10-10-10-10-10-10-10-------------------12-12---15----12-12---15
--------5/12--------------------------------------5/12---------------------------
-0-0---------------------------------------0-0-----------------------------------

                    8th time
---------------------------------------
---------------------------------------
---------------------------------------
----------10-10-10-10---------0-0-0----
---5/12---------------7-7-7-7-0-0-0----
-0------0---------------------0-0-0----

Intro 2

This part has to be played 8 times too.

                1st time            2nd and 6th time
----------------------------------------------------------
----------------------------------------------------------
------------0/5-5-5-5-5-5-5---------------0/7-7-7---------
-0-0--------2/5-5-5-5-5-5-5----0-0--------2/7-7-7----3-3-3
-0-0--------2/3-3-3-3-3-3-3----0-0--------2/5-5-5----3-3-3
-0-0---------------------------0-0-------------------3-3-3

                3rd time                    4th and 8th time
---------------------------------------------------------------------
---------------------------------------------------------------------
------------0/5-5-5-5-5-5-5-5----------------------------------------
-0-0--------0/5-5-5-5-5-5-5-5----0-0--------7----12-12--15--12-12--15
-0-0--------2/3-3-3-3-3-3-3-3----0-0--------7------------------------
-0-0-----------------------------0-0--------7------------------------

          7th time
----------------------------
----------------------------
------------0/5-5-5---------
-0-0--------0/5-5-5--2-2-2-2
-0-0--------0/3-3-3--2-2-2-2
-0-0-----------------2-2-2-2

Pre-Chorus (single me out...)
---------------------------------------------------
-------3-3----3-3------8---------------------------
-------2-2----2-2------7---------------------------
-0-0-0-0-0-0-0-0---5-5-5-5---8-8-8-10---10-10-10-12
-0-0-0-0-0-0-0-0---5-5-5-5---8-8-8-8----10-10-10-10
-0-0-0-0-0-0-0-0---5-5-5-5---8-8-8-8----10-10-10-10
[ Tab from: http://www.guitartabs.cc/tabs/p/papa_roach/life_is_a_bullet_tab_ver_8.html ]
Chorus
--------------------------------------------------------------
--------------------------------------------------------------
----------9--10----------9--10----------9--10-------------9--5
-5-5-5----x---x--7-7-7---x---x--8-8-8---x---x--10-10-10---x--x
-5-5-5----7---8--7-7-7---7---8--8-8-8---7---8--10-10-10---7--3
-5-5-5-----------7-7-7----------8-8-8----------10-10-10-------

---------------------------------------------------------------
---------------------------------------------------------------
----------9--10----------9--10----------9--10------------12--10
-5-5-5----x---x--7-7-7---x---x--8-8-8---x---x--10-10-10---x---x
-5-5-5----7---8--7-7-7---7---8--8-8-8---7---8--10-10-10--10---8
-5-5-5-----------7-7-7----------8-8-8----------10-10-10--------

Interludio

This part goes after the first chorus.
-----------------------------------------------------------------------------
-----------------------------------------------------------------------------
-----------------------------------------------------------------------------
---------------10-10-10-10-10-10-10-10-------------------12-12-12-12---------
--------5/12--------------------------------------5/12---------------8-8-8-8-
-0-0---------------------------------------0-0-------------------------------
     
---------------------------------------------------------------------------------
---------------------------------------------------------------------------------
---------------------------------------------------------------------------------
---------------10-10-10-10-10-10-10-10-------------------12-12---15----12-12---15
--------5/12--------------------------------------5/12---------------------------
-0-0---------------------------------------0-0-----------------------------------

Riff 2 
-----------------------------------------------------
-----------------------------------------------------
-----------------------------------------------------
-----------------------------------------------------
----8-----7-8-5-----8-----7-8-5p0--------------------
-0-----0--------0------0-----------------------------   x7 

Then:
--------------------------------------------------------
--------------------------------------------------------
---------------------------9-----------------10---------
-8---7/8\7---3/5\3-------7---3-3h5-3-------7------------
-8---7/8\7---3/5\3-----5-------------3---8------10-10-10
-8---7/8\7---3/5\3---0-----------------0--------10-10-10

-----------------
-----------------
-------9-------10
-----7-------7---
---5-------8-----
-0-------0-------   x4

Interludio 2

This goes after the Interludio 1.
--------------------------------------------------------------
--------------------------------------------------------------
----------9--10----------9--10----------9--10-------------9--5
-5-5-5----x---x--7-7-7---x---x--8-8-8---x---x--10-10-10---x--x
-5-5-5----7---8--7-7-7---7---8--8-8-8---7---8--10-10-10---7--3
-5-5-5-----------7-7-7----------8-8-8----------10-10-10-------


Outro
------------------------------------------------------------------------------------------------
------------------------------------------------------------------------------------------------
---------------7-7-7--------------------101010-------------------7-7-7---------------------7-7-7
0-0-0-0-0-0----7-7-7----0-0-0-0-0-0-----101010----5-5-5-5-5-5----7-7-7----8-8-8-8-8-8-8----7-7-7
0-0-0-0-0-0----5-5-5----0-0-0-0-0-0------8-8-8----5-5-5-5-5-5----5-5-5----8-8-8-8-8-8-8----5-5-5
0-0-0-0-0-0-------------0-0-0-0-0-0---------------5-5-5-5-5-5-------------8-8-8-8-8-8-8---------

------------------------------------
------------------------------------
---------------------12-12-12----7/0
10-10-10-10-10-10----10-10-10----5/0
10-10-10-10-10-10----10-10-10----5/0
10-10-10-10-10-10----------------5/0



Order:

* Intro 1
* Intro 2
* Riff 1
* Pre-Chorus
* Chorus
* Interludio
* Riff 1
* Pre-Chorus
* Chorus
* Riff 2
* Interludio 2
* Pre-Chorus      x2 times
* Chorus
* Outro

That's all. Respect all the spaces. Hope you like it.
Comments