Papa Roach - Life Is A Bullet Chords & Tabs

 

Life Is A Bullet Chords & Tabs

Papa Roach Chords & Tabs

Version: 7 Type: Tab 0 ratings
1 star 2 stars 3 stars 4 stars 5 stars
comments

Life Is A Bullet Tab

   
Artist/Band: Papa Roach
Song: Life is a bullet
Tuning: D,a,D,g,b,e
Tabber: Ben Rogers

This is the full and correct version of this song. 
Note: The 10s are tens not one and zero.

Intro/Verse:

e----------------------------------------------------------------
b----------------------------------------------------------------
g--------55555555---------7777---------------55555555---------77/
d-0-0-0--xxxxxxxx--0-0-0--xxxx--3333--0-0-0--xxxxxxxx--0-0-0--xx/
a-0-0-0--33333333--0-0-0--5555--------0-0-0--33333333--0-0-0--55/
D-0-0-0------------0-0-0--------------0-0-0------------0-0-0-----

e----------------------------------------------------------------
b----------------------------------------------------------------
g-1010-77/1010--------55555555--------7777-----------------5555--
d-x-x--xx/x-x---0-0-0-xxxxxxxx--0-0-0-xxxx--3333--0-0-0----xxxx--
a-8-8--55/8-8---0-0-0-33333333--0-0-0-5555--------0-0-0----3333--
D---------------0-0-0-----------0-0-0-------------0-0-0----------

e---------------                                                  
b---------------
g---------------                                              
d-2222----00-0--
a---------00-0--
D---------00-0--

Bit after verse

e------------------------------------------------------------------
b------------------------------------------------------------------
g------------------------------------------------------------------
d-0-0-0---1010101010101010--0-0-0-12121212\3333--0-0-0--1010101010-
a-0-0-0---1010101010101010--0-0-0-12121212\3333--0-0-0--1010101010-
D-0-0-0---1010101010101010--0-0-0-12121212\3333--0-0-0--1010101010-

e------------------------------------------------------------------
b------------------------------------------------------------------
g------------------------------------------------------------------
d-101010---0-0-0--1212151512121515--0-0-0--1010101010101010--0-0-0-
a-101010---0-0-0--1212151512121515--0-0-0--1010101010101010--0-0-0-
D-101010---0-0-0--1212151512121515--0-0-0--1010101010101010--0-0-0-

e------------------------------------------------------------------
b------------------------------------------------------------------
g------------------------------------------------------------------
d-12121212\3333--0-0-0--10101010\2222--0-0-0--1212151512121515-----
a-12121212\3333--0-0-0--10101010\2222--0-0-0--1212151512121515-----
D-12121212\3333--0-0-0--10101010\2222--0-0-0--1212151512121515-----

Pre chorus "Single me out.........." :

e-------------------------------------------------------------------
b-------------------------------------------------------------------
g---------7---------7---------7-------------------------------------
d-0-0-0---7--0-0-0--7--5-5-5--7---8-8-8-8--10-10-10-----------------
a-0-0-0---5--0-0-0--5--5-5-5--5---8-8-8-8--10-10-10-----------------
D-0-0-0------0-0-0-----5-5-5------8-8-8-8--10-10-10-----------------

Chorus:

e-------------------------------------------------------------------
b-------------------------------------------------------------------
g----------9-10-----------9-7-----------9-10--------------9-7-------
d-5-5-5-5--x--x--7-7-7-7--x-x--8-8-8-8--x--x--10-10-10-10-x-x-------
a-5-5-5-5--7--8--7-7-7-7--7-5--8-8-8-8--7--8--10-10-10-10-7-5-------
D-5-5-5-5--------7-7-7-7-------8-8-8-8--------10-10-10-10-----------
[ Tab from: http://www.guitartabs.cc/tabs/p/papa_roach/life_is_a_bullet_tab_ver_7.html ]
e-------------------------------------------------------------------
b-------------------------------------------------------------------
g----------10-10----------10-10---------10-10---------------14-10--
d-5-5-5-5--x--x--7-7-7-7--x--x--8-8-8-8--x--x--10-10-10-10---x--x---
a-5-5-5-5--7--8--7-7-7-7--7--8--8-8-8-8--7--8--10-10-10-10--12--8---
D-5-5-5-5--------7-7-7-7--------8-8-8-8--------10-10-10-10----------

First interclude:

e-------------
b-------------                                                      
g-------------
d-------------
a---8---7-8-5-
D-0---7-------

Second interclude:

e------------------------------------------------------------------
b------------------------------------------------------------------
g----------------------------9-xx--------------10------------------
d-8---------7h8-7--3h5-3----7--xx--7h8-7-3----7-----xx--1010101010-
a-8---------7h8-7--3h5-3---8---xx--7h8-7-3---8------xx--1010101010-
D-8---------7h8-7--3h5-3--0----xx--7h8-7-3--0-------xx--1010101010-

Third intervlude

e-----------------------------------------------------------------3
b-----------------------------------------------------------------t
g-----------9~~~~~~~------------10~~~~~~~-------------------------i
d--------7-------------------7------------------------------------m
a-----8--------------------8--------------------------------------e
D--0---------------------0----------------------------------------s

Fourth interclude:

e------------------------------------------------------------------
b------------------------------------------------------------------
g----------7777/99/1010-----------7777/99/1010-----------7777/99/10
d-55555555-7777/99/1010--77777777-7777/99/1010-88888888--7777/99/10
a-55555555-5555/77/-8-8--77777777-5555/77/-8-8-88888888--5555/77/-8
D-55555555---------------77777777--------------88888888------------

e------------------------------------------------------------------
b------------------------------------------------------------------
g-------------------7777/99/1010-----------------------------------
d-1010101010101010--7777/99/1010-----------------------------------
a-1010101010101010--5555/77/-8-8-----------------------------------
D-1010101010101010-------------------------------------------------

Beetween last chorus and pre chorus (kind of like 1st interclude)
e---------------   -------------------------------------------------
b---------------   -------------------------------------------------
g---10-----7-10- 2 ---10-----9-10-7-----10-----9-10-7-----10-----0--
d-0--x--7--x--x- x -5--x--5--x--x-x--8---x--8--x--x-x--10--x-10--9--
a-0--8--7--9--8-   -5--8--5--7--8-5--8---8--8--7--8-5--10--8-10--7--
D-0-----7-------   -5-----5----------8------8----------10----10-----

e-------------------------------------------------------------------
b-------------------------------------------------------------------
g-10-7--------------------------------------------------------------
d--x-x-------------------------------------------------------------
a--8-5--------------------------------------------------------------
D-------------------------------------------------------------------

Outro:

e------------------------------------------------------------------
b------------------------------------------------------------------
g----------77777777-----------1010101010101010----------77777777---
d-00000000-77777777-000000000-1010101010101010-55555555-77777777---
a-00000000-55555555-000000000--8-8-8-8-8-8-8-8-55555555-55555555---
D-00000000----------000000000------------------55555555------------

e------------------------------------------------------------------
b------------------------------------------------------------------
g----------10101010101010---------------------1212121212121212-----
d-88888888-10101010101010---1010101010101010--1212121212121212-//12
a-88888888--8-8-8-8-8-8-8---1010101010101010--1010101010101010-//12
D-88888888------------------1010101010101010-------------------//12

Thats it the whole thing. Just listen to the song and put the pices 2gether. Any comments would be appreciated.
Comments