Papa Roach - Life Is A Bullet Chords & Tabs

 

Life Is A Bullet Chords & Tabs

Papa Roach Chords & Tabs

Version: 2 Type: Tab 0 ratings
1 star 2 stars 3 stars 4 stars 5 stars
comments

Life Is A Bullet Tab

   
I have tabbed this song origannly from the single"she loves me not" on it "life is a bullet" is live.

Tuning----(low to high) D A D G B E 

Intro (part 1)
e----------------------------------------------------------
b----------------------------------------------------------
g--------5-5-5-5-5-5-5---------7-7-7-0-0-0-------5-5-5-5-5-
d----------------------------------------------------------
a----------------------------------------------------------
d-0--0-0----------------0--0-0-------------0--0-0----------

e----------------------------------------------------------
b-----------4-----4----------------------------------------
g-------5-5---5-5----------5-5-5-5-5-------7-7-7-0-0-0-----
d----------------------------------------------------------
a----------------------------------------------------------
d-0--0-0------------0--0-0-----------0--0-0----------------

e-------------------
b-------------------
g-------5-5-5-0-0-0-
d-------------------
a-------------------
d-0--0-0------------

Intro (part 2)
e----------------------------------------------------------
b----------------------------------------------------------
g--------7-7-7-7-7-7-7-7--------9-9-9-5-5-5---------7-7-7-7
d-0--0-0-x-x-x-x-x-x-x-x-0--0-0-x-x-x-x-x-x--0--0-0-x-x-x-x
a-0--0-0-5-5-5-5-5-5-5-5-0--0-0-7-7-7-3-3-3--0--0-0-5-5-5-5
d-0--0-0-----------------0--0-0--------------0--0-0--------

e----------------------------------------------------------
b----------------------------------------------------------
g-7-7-7-7--------------7-7--10--7-7--10--------7-7-7-7-7-7-
d-x-x-x-x-0--0-0-------x-x---x--x-x---x-0--0-0-x-x-x-x-x-x-
a-5-5-5-5-0--0-0-------5-5---8--5-5---8-0--0-0-5-5-5-5-5-5-
d---------0--0-0------------------------0--0-0-------------

e----------------------------------------------------------
b----------------------------------------------------------
g--------9-9-9-5-5-5--------7-7-7-5-5-5--------7-7--10--7-7
d-0--0-0-x-x-x-x-x-x-0--0-0-x-x-x-x-x-x-0--0-0-x-x---x--x-x
a-0--0-0-7-7-7-3-3-3-0--0-0-5-5-5-3-3-3-0--0-0-5-5---8--5-5
d-0--0-0-------------0--0-0-------------0--0-0-------------

e----
b----
g-10-
d--x-
a--8-
d----
[ Tab from: http://www.guitartabs.cc/tabs/p/papa_roach/life_is_a_bullet_tab_ver_2.html ]
For the verse you just play part 1 of the intro. you play it once and then on to the pre-chorus.

Pre-Chorus
e----------------------------------------------------------
b----------------------------------------------------------
g---------------------------14-----------------------------
d-5--5--5---11----5--5--5----x----3--3--3-3/5-5--5--5-5----
a-5--5--5---11----5--5--5---12----3--3--3-3/5-5--5--5-5----
d-5--5--5---11----5--5--5---------3--3--3-3/5-5--5--5-5----

Chorus
e----------------------------------------------------------
b----------------------------------------------------------
g-7--7--7--7/9--9--9--9--9/7--7--7--7--7/9--9--9--9--9/7---
d-5--5--5--x/x--7--7--7--x/x--5--5--5--x/x--7--7--7--x/x---
a-5--5--5--5/7--7--7--7--7/5--5--5--5--5/7--7--7--7--7/5---
d-5--5--5-------7--7--7-------5--5--5-------7--7--7--------

e----------------------------------------------------------
b----------------------------------------------------------
g-7--7--7--7/9--9--9--9--7/9--7--7--7--7/9--9--9--9--9/7---
d-5--5--5--x/x--7--7--7--x/x--5--5--5--x/x--7--7--7--x/x---
a-5--5--5--5/7--7--7--7--5/7--5--5--5--5/9--7--7--7--7/5---
d-5--5--5-------7--7--7-------5--5--5-------7--7--7--------

After the second chorus there is a bridge and there is a bit that i haven't got yet.

Bridge
e-----------  -------0-------0-
b-----------  -------0-------0-
g-----------  -------0-------0-
d-----------  -------0-------0-
a---7---5-7-  ---7---5---7---5-
d-5---7-----  -5---7---5---7---

e------------------------------
b------------------------------
g-7-7-7-7-7/9-9-9-9-9/7--------
d-5-5-5-5-x/x-7-7-7-x/x--------
a-5-5-5-5-5/7-7-7-7-7/5--------
d-5-5-5-5-----7-7-7------------

Outro
e-------------------------------------
b-------------------------------------
g-7-7-x-x-7-7-x-x-x-x-x-x-9-9-x-x-9-9-
d-x-x-x-x-x-x-x-x-x-x-x-x-x-x-x-x-x-x-
a-5-5-x-x-5-5-x-x-x-x-x-x-7-7-x-x-7-7-
d-----x-x-----x-x-x-x-x-x-----x-x-----


If you haven't already got it i recomend buying lovehatetragedy it is a brilliant album
and this song is on it and i will hopefully be able to tab some of the other songs
on the album. leave some comments thanx.
Comments