Papa Roach - Legacy Chords & Tabs

 

Legacy Chords & Tabs

Papa Roach Chords & Tabs

Version: 1 Type: Tab 0 ratings
1 star 2 stars 3 stars 4 stars 5 stars
comments

Legacy Tab

   
Artist: Papa Roach

Song: Legacy

Aldum: Censered Version Of Infest, I think...

Tabbed By: Brian Mc(Bri3_16@Hotmail.com)

Tuning: Drop D (D,A,D,G,B,E)-Low To High

Key: * - Harmonics
     p - Pull Off

This is a cool song no one had it now ya do......

Intro
E|------------------------------------------------------|
B|------------------------------------------------------|
G|---2-2---2-2---2-2---2---2----2-2---2-2---2-2---2---2-|
D|---0-0---0-0---0-0---0---0----0-0---0-0---0-0---0---0-|
A|-x-0-0-x-0-0-x-0-0-x-0-x-0--x-0-0-x-0-0-x-0-0-x-0-x-0-|
D|-x-0-0-x-0-0-x-0-0-x-0-x-0--x-0-0-x-0-0-x-0-0-x-0-x-0-|

Verse
E|-----------------------------------------------------------|
B|-----------------------------------------------------------|
G|-----------------------------------------------------------|
D|---7-7-10p7-------7-7-8p7-------7-7-10p7-------7-7-8p7-8p7-|
A|---8-8--8---------8-8-8---------8-8--8---------8-8-8---8---|
D|-x----------x-x-x---------x-x-x----------x-x-x-------------|

Pre-Chorus
E|-----------------------------------------
B|-----------------------------------------
G|-----------------------------------------
D|--8--8--8--8--8--8--8--8-8-8-8-8-8-8-8-8-
A|-10-10-10-10-10-10-10-10-8-8-8-8-8-8-8-8-
D|--8--8--8--8--8--8--8--8-8-8-8-8-8-8-8-8-

-------------------------------------------------|
-------------------------------------------------|
-------------------------------------------------|
-10-10-10-10-10-10-10-10-10-10-10-10-10-10-10-10-|
-12-12-12-12-12-12-12-12-10-10-10-10-10-10-10-10-|
-10-10-10-10-10-10-10-10-10-10-10-10-10-10-10-10-|
[ Tab from: http://www.guitartabs.cc/tabs/p/papa_roach/legacy_tab.html ]
Chorus
E|---------------------------------------------------------
B|---------------------------------------------------------
G|-7-------9-------10-10-10-10-10-10-10-10-5-5-5-5-5-5-5-5-
D|-x-0-0-0-x-0-0-0--x--x--x--x--x--x--x--x-3-3-3-3-3-3-3-3-
A|-5-0-0-0-7-0-0-0--8--8--8--8--8--8--8--8-3-3-3-3-3-3-3-3-
D|---0-0-0---0-0-0-------------------------3-3-3-3-3-3-3-3-

----------------------------------------------------------
----------------------------------------------------------
-9-9-9-9-5-5-5-5--7-------9-------10-10-10-10-10-10-10-10-
-x-x-x-x-x-x-x-x--x-0-0-0-x-0-0-0--x--x--x--x--x--x--x--x-
-7-7-7-7-3-3-3-3--5-0-0-0-7-0-0-0--8--8--8--8--8--8--8--8-
--------------------0-0-0---0-0-0-------------------------

---------------------------------------------|
---------------------------------------------|
-10-10-10-10-10-10-10-10-10-10-10-10-5-5-5-5-|
--8--8--8--8--8--8--8--8--x--x--x--x-x-x-x-x-|
--8--8--8--8--8--8--8--8--8--8--8--8-3-3-3-3-|
--8--8--8--8--8--8--8--8---------------------|


E|-----------------------------------------------------------
B|-----------------------------------------------------------
G|-----------------------------------------------------------
D|---7-7-10p7-------7-7-8p7-------7-7-10p7-------7-7-8p7-8p7-
A|---8-8--8---------8-8-8---------8-8--8---------8-8-8---8---
D|-x----------9-9-9---------9-9-9----------9-9-9-------------
              * * *         * * *          * * *
Outro("Legacy, Legacy. Legacy...")
E|-------------------------
B|-------------------------
G|---2-2---2-2---2-2---2-2-
D|---0-0---0-0---0-0---0-0- x3 then
A|-x-0-0-x-0-0-x-0-0-x-0-0-
D|-x-0-0-x-0-0-x-0-0-x-0-0-

Outro2
E|--------------------------------------------------|
B|--------------------------------------------------|
G|---2-2---2-2-7-7-7-7-7-7-7-7-7-7-7-7--2----2----2-|
D|---0-0---0-0-x-x-x-x-x-x-x-x-x-x-x-x--0----0----0-|
A|-x-0-0-x-0-0-5-5-5-5-5-5-5-5-5-5-5-5--0----0----0-|
D|-x-0-0-x-0-0--------------------------0----0----0-|
Comments