Papa Roach - Last Resort Chords & Tabs

 

Last Resort Chords & Tabs

Papa Roach Chords & Tabs

Version: 3 Type: Tab 3 ratings
1 star 2 stars 3 stars 4 stars 5 stars
comments

Last Resort Tab

#-----------------------------------------------------------------------------#
#-- File created with Instab - http://www.pconline.com/~smcarey/instab.html --#
#-----------------------------------------------------------------------------#

Author/Artist: Papa Roach
Title: Last Resort
Album: Infest
Transcribed by: Matt Buchanan
Email: matt_bch@hotmail.com

Guitar uses heavy distorted type sound. Apparently they play this song in
Drop - D tuning (DADGBE) but this version works and gives the same
effect over all. Dont linger on notes as on the record they play very 
sharply with tight note cut-offs (And i'm not talking about trousers), or at
least they do near the begining but by the end it dosent really matter as 
long as you can hear the chords.In case anyone is interested this version
is in E.In the chorus when the chords are, there is actually a pretty constant
stream of notes but I have written this to economise on that.
 This version sounds a bit high when compared to original but it should 
sound right again with a suitably heavy bass part added onto it. The 
timing isnt too acurate on this so you may have to feel your way with
the record to get a good degree of acuracy. Standard tuning
 EADGBE

------------------------------------------------------------------------------
------------------------------------------------------------------------------
------------------------------------------------------------------------------
------------------------------------------------------------------------------
------------------------------------------------------------------------------
------------------------------------------------------------------------------
                

--------------------------|---------------------------------------------------
--------------------------|---------------------------------------------------
--9-9---------7-7---------|5-5-------------------4-4--------7-7---------------
--9-9---------7-7---------|5-5-------------------4-4--------7-7---------------
--7-7---------5-5---------|3-3-------------------2-2--------5-5---------------
--------------------------|---------------------------------------------------
        

-----------------------------------|------------------------------------------
-----------------------------------|------------------------------------------
-----------------------------------|------------------------------------------
----------9----------------9-------|--------9----------------9----------------
---10-9-10-10-9-10--10-9-10-10-9-10|-10-9-10-10-9-10--10-9-10-10-9-10---------
-12---------------10---------------|8---------------11------------------------
 RIFF A-Play 2wice normaly and  then repeat palm muted 4 times over verses>   

-----------------------------------|------------------------------------------
-----------------------------------|------------------------------------------
-----------------------------------|------------------------------------------
----------9----------------9-------|--------9----------------9----------------
---10-9-10-10-9-10--10-9-10-10-9-10|-10-9-10-10-9-10--10-9-10-10-9-10---------
-12---------------10---------------|8---------------11------------------------
   

-----------------------------------|------------------------------------------
-----------------------------------|------------------------------------------
-----------------------------------|------------------------------------------
----------9----------------9-------|--------9----------------9----------------
---10-0-10-10-9-10--10-9-10-10-9-10|-10-9-10-10-9-10--10-9-10-10-9-10---------
-12---------------10---------------|8---------------11-----------------------


-----------------------------------|------------------------------------------
-----------------------------------|------------------------------------------
-----------------------------------|------------------------------------------
----------9----------------9-------|--------9-----------------9---------------
---10-9-10-10-9-10--10-9-10-10-9-10|-10-9-10-10-9-10---10-9-10-10-9-10--------
-12---------------10---------------|8---------------11------------------------
 

-----------------------------------|------------------------------------------
-----------------------------------|------------------------------------------
-----------------------------------|------------------4--4--7--7--------------
----------9----------------9-------|--------9---------4--4--7--7--------------
---10-9-10-10-9-10--10-9-10-10-9-10|-10-9-10-10-9-10--2--2--5--5--------------
-12---------------10---------------|8-----------------------------------------
                    

------|--------------------------|-2-2-3-3-5-5-2-2----------------------------
------|--------------------------|-3-3-3-3-3-3-3-3----------------------------
------|--9--9--9--9---5--5--5--5-|-2-2-2-2-2-2-2-2----------------------------
------|--9--9--9--9---5--5--5--5-|--------------------------------------------
------|--7--7--7--7---3--3--3--3-|--------------------------------------------
------|--------------------------|--------------------------------------------
 CosIm Losin my sight,losin my mind___________________________________________

-------------------------|-------------0--0-----------------------------------
-------------------------|-7--7--8--8--x--x--7--7-----------------------------
-9--9--9--9---5--5--5--5-|-7--7--7--7--7--7--7--7-----------------------------
-9--9--9--9---5--5--5--5-|-7--7--7--7--7--7--7--7-----------------------------
-7--7--7--7---3--3--3--3-|-5--5--5--5--5--5--5--5-----------------------------
-------------------------|----------------------------------------------------
 Losin my sight,losin my mind_________________________________________________          

------------------------------------------------------------------------------
------------------------------------------------------------------------------
------------------------------------------------------------------------------
------------------------------------------------------------------------------
------------------------------------------------------------------------------
------------------------------------------------------------------------------
 Riff-A again UN-muted once  and back into another verse with muted notes.>   

-----------------------------------|------------------------------------------
-----------------------------------|------------------------------------------
-----------------------------------|------------------------------------------
----------9----------------9-------|--------9----------------9----------------
---10-9-10-10-9-10--10-9-10-10-9-10|-10-9-10-10-9-10--10-9-10-10-9-10---------
-12---------------10---------------|8---------------11------------------------


-----------------------------------|------------------------------------------
-----------------------------------|------------------------------------------
-----------------------------------|------------------------------------------
----------9----------------9-------|--------9----------------9----------------
---10-9-10-10-9-10--10-9-10-10-9-10|-10-9-10-10-9-10--10-9-10-10-9-10---------
-12---------------10---------------|8---------------11------------------------


-----------------------------------|------------------------------------------
-----------------------------------|------------------------------------------
-----------------------------------|------------------------------------------
----------9----------------9-------|--------9----------------9----------------
---10-9-10-10-9-10--10-9-10-10-9-10|-10-9-10-10-9-10--10-9-10-10-9-10---------
-12---------------10---------------|8---------------11------------------------


-----------------------------------|------------------------------------------
-----------------------------------|------------------------------------------
-----------------------------------|------------------4--4--7--7--------------
----------9----------------9-------|--------9---------4--4--7--7--------------
---10-9-10-10-9-10--10-9-10-10-9-10|-10-9-10-10-9-10--2--2--5--5--------------
-12---------------10---------------|8-----------------------------------------
 

 Repeat chorus  

-------------------------|----------------------------------------------------
-------------------------|----------------------------------------------------
-9--9--9--9---5--5--5--5-|--------------4--4--4--4----------------------------
-9--9--9--9---5--5--5--5-|-5--5--5--5---4--4--4--4----------------------------
-7--7--7--7---3--3--3--3-|-5--5--5--5---2--2--2--2----------------------------
-------------------------|-3--3--3--3-----------------------------------------
                                     

-------------------------|----------------------------------------------------
-------------------------|----------------------------------------------------
-9--9--9--9---5--5--5--5-|--------------4--4--4--4----------------------------
-9--9--9--9---5--5--5--5-|-5--5--5--5---4--4--4--4----------------------------
-7--7--7--7---3--3--3--3-|-5--5--5--5---2--2--2--2----------------------------
-------------------------|-3--3--3--3-----------------------------------------
                                     
[ Tab from: http://www.guitartabs.cc/tabs/p/papa_roach/last_resort_tab_ver_3.html ]
-------------------------|----------------------------------------------------
-------------------------|----------------------------------------------------
-9--9--9--9--------------|-5--5--5--5---4--4--4--4----------------------------
-9--9--9--9---5--5--5--5-|-5--5--5--5---4--4--4--4----------------------------
-7--7--7--7---5--5--5--5-|-3--3--3--3---2--2--2--2----------------------------
--------------3--3--3--3-|----------------------------------------------------
                    

-------------------------|----------------------------------------------------
-------------------------|----------------------------------------------------
-9-9------------7-7------|-5-5--------4-4--7-7--------------------------------
-9-9------------7-7------|-5-5--------4-4--7-7--------------------------------
-7-7------------5-5------|-3-3--------2-2--5-5--------------------------------
-------------------------|----------------------------------------------------
                           

-------------------------|----------------------------------------------------
-------------------------|----------------------------------------------------
-9-9-----------7-7-------|-5-5--------4-4--7-7--------------------------------
-9-9-----------7-7-------|-5-5--------4-4--7-7--------------------------------
-7-7-----------5-5-------|-3-3--------2-2--5-5--------------------------------
-------------------------|----------------------------------------------------
                              

-------------------------|----------------------------------------------------
-------------------------|----------------------------------------------------
-9-9-----------7-7-------|-5-5--------4-4--7-7--------------------------------
-9-9-----------7-7-------|-5-5--------4-4--7-7--------------------------------
-7-7-----------5-5-------|-3-3--------2-2--5-5--------------------------------
-------------------------|----------------------------------------------------
                           This is my Last Resort                             

--------------------------|---------------------------------------------------
--------------------------|---------------------------------------------------
-9-9-----------7-7--------|-5-5-------4-4--7-7--------------------------------
-9-9-----------7-7--------|-5-5-------4-4--7-7--------------------------------
-7-7-----------5-5--------|-3-3-------2-2--5-5--------------------------------
--------------------------|---------------------------------------------------
         

-----------------------------------|------------------------------------------
-----------------------------------|------------------------------------------
-----------------------------------|------------------------------------------
----------9----------------9-------|--------9----------------9----------------
---10-9-10-10-9-10--10-9-10-10-9-10|-10-9-10-10-9-10--10-9-10-10-9-10---------
-12---------------10---------------|8---------------11------------------------


-----------------------------------|------------------------------------------
-----------------------------------|------------------------------------------
-----------------------------------|------------------4--4--7--7--------------
----------9----------------9-------|--------9---------4--4--7--7--------------
---10-9-10-10-9-10--10-9-10-10-9-10|-10-9-10-10-9-10--2--2--5--5--------------
-12---------------10---------------|8-----------------------------------------
                                                                

-----------------------------|------------------------------------------------
-----------------------------|------------------------------------------------
-----------------------------|------------------------------------------------
-----------------------------|------------------------------------------------
-----------------------------|------------------------------------------------
-----------------------------|------------------------------------------------
 Repeat chorus and add bridge/ending part onto end                            

-------------------------|----------------------------------------------------
-------------------------|----------------------------------------------------
-9--9--9--9---5--5--5--5-|--------------4--4--4--4----------------------------
-9--9--9--9---5--5--5--5-|-5--5--5--5---4--4--4--4----------------------------
-7--7--7--7---3--3--3--3-|-5--5--5--5---2--2--2--2----------------------------
-------------------------|-3--3--3--3-----------------------------------------
                                  

-------------------------|----------------------------------------------------
-------------------------|----------------------------------------------------
-9--9--9--9---5--5--5--5-|--------------4--4--4--4----------------------------
-9--9--9--9---5--5--5--5-|-5--5--5--5---4--4--4--4----------------------------
-7--7--7--7---3--3--3--3-|-5--5--5--5---2--2--2--2----------------------------
-------------------------|-3--3--3--3-----------------------------------------
                                   

--------------------------|-2-2-3-3-5-5-2-2-----------------------------------
--------------------------|-3-3-3-3-3-3-3-3-----------------------------------
--9--9--9--9---5--5--5--5-|-2-2-2-2-2-2-2-2-----------------------------------
--9--9--9--9---5--5--5--5-|---------------------------------------------------
--7--7--7--7---3--3--3--3-|---------------------------------------------------
--------------------------|---------------------------------------------------
                                  

-------------------------|-2-2-3-3-5-5-353------------------------------------
-------------------------|-3-3-3-3-3-3-3-3------------------------------------
-9--9--9--9---5--5--5--5-|-2-2-2-2-2-2-2-2------------------------------------
-9--9--9--9---5--5--5--5-|----------------------------------------------------
-7--7--7--7---3--3--3--3-|----------------------------------------------------
-------------------------|----------------------------------------------------
                                

-------------------------|----------------------------------------------------
-------------------------|----------------------------------------------------
-9--9--9--9---5--5--5--5-|----------------------------------------------------
-9--9--9--9---5--5--5--5-|----------------------------------------------------
-7--7--7--7---3--3--3--3-|-5-x-5-x-5-x-5-x------------------------------------
-------------------------|-3-3-3-3-3-3-3-3------------------------------------
                                                                   

-------------------------|-2-2-3-3-5-5-2-2------------------------------------
-------------------------|-3-3-3-3-3-3-3-3------------------------------------
-9--9--9--9---5--5--5--5-|-2-2-2-2-2-2-2-2------------------------------------
-9--9--9--9---5--5--5--5-|----------------------------------------------------
-7--7--7--7---3--3--3--3-|----------------------------------------------------
-------------------------|----------------------------------------------------
                          Cant go on                                          

-------------------------|-2-2-3-3-5-5-353------------------------------------
-------------------------|-3-3-3-3-3-3-3-3------------------------------------
-9--9--9--9---5--5--5--5-|-2-2-2-2-2-2-2-2------------------------------------
-9--9--9--9---5--5--5--5-|----------------------------------------------------
-7--7--7--7---3--3--3--3-|----------------------------------------------------
-------------------------|----------------------------------------------------
                          living this way                                     

-------------------------|-2-2-3-3-5-5-2-2------------------------------------
-------------------------|-3-3-3-3-5-5-2-2------------------------------------
-9--9--9--9---5--5--5--5-|-2-2-2-2-2-2-2-2------------------------------------
-9--9--9--9---5--5--5--5-|----------------------------------------------------
-7--7--7--7---3--3--3--3-|----------------------------------------------------
-------------------------|----------------------------------------------------
                                                      

-----------------|-|----------------------------------------------------------
-----------------|-|----------------------------------------------------------
-9-9-9-9-9-9-9-9-|-|----------------------------------------------------------
-9-9-9-9-9-9-9-9-|-|----------------------------------------------------------
-7-7-7-7-7-7-7-7-|-|----------------------------------------------------------
-----------------|-|----------------------------------------------------------
                                                               

-------------------------|----------------------------------------------------
-------------------------|----------------------------------------------------
-9--9--9--9---5--5--5--5-|----------------------------------------------------
-9--9--9--9---5--5--5--5-|----------------------------------------------------
-7--7--7--7---3--3--3--3-|-9v--9v--10v--10v--12v--12v--9v--9v-----------------
-------------------------|----------------------------------------------------
 Instead of the open D chord at the end and in the chorus you could let the   

------------------------------------------------------------------------------
------------------------------------------------------------------------------
------------------------------------------------------------------------------
------------------------------------------------------------------------------
------------------------------------------------------------------------------
------------------------------------------------------------------------------
 Bass play the main chords and just play the notes around this area.          
Comments