Papa Roach - Last Resort Chords & Tabs

 

Last Resort Chords & Tabs

Papa Roach Chords & Tabs

Version: 2 Type: Tab 4 ratings
1 star 2 stars 3 stars 4 stars 5 stars
comments

Last Resort Tab

   
Papa Roach: Last Resort from “Infest”
Guitarist is: Jerry Horton
Tabbed by: Adam D   guitarist_adam@hotmail.com  if u have any 
questions/comments then just e-mail me…………this is from 
the tab book.
it opens best in "WordPad" with size 10 font


Rhy. Fig 1 (the bass plays this beat for almost all of the song)
E-----------------------------------------------------------
B-----------------------------------------------------------
G-----------------------------------------------------------
D--9-9------7-7-------5-5------4-4------7-7-----------------
A--7-7------5-5-------3-3------2-2------5-5-----------------
D--9-9------7-7-------5-5------4-4------7-7-----------------


Riff. A
E------------------------------------------------------
B------------------------------------------------------
G------------------------------------------------------
D----------------9-----------------------------9-------
A--7--10--9--10-----10--9--10------10--9--10-----10-9-10
D------------------------------12----------------------

E------------------------------------------------------
B------------------------------------------------------
G------------------------------------------------------
D----------------9---------------------------9---------
A----10--9--10-----10--9--10------10-9--10-----10-9-10-
D-10--------------------------9------------------------x2

Riff. B
Palm muted_____________________________________________
E------------------------------------------------------
B------------------------------------------------------
G------------------------------------------------------
D----------------9---------------------------9---------
A--7--10--9--10-----10--9--10------10-9--10-----10-9-10
D------------------------------12----------------------
_______________________________________________________
E------------------------------------------------------
B------------------------------------------------------
G------------------------------------------------------
D----------------9---------------------------9---------
A----10--9--10-----10--9--10------10-9--10-----10-9-10-
D-10--------------------------9------------------------x3

Then
Palm muted_____________________________________________
E------------------------------------------------------
B------------------------------------------------------
G------------------------------------------------------
D----------------9---------------------------9---------
A--7--10--9--10-----10--9--10------10-9--10-----10-9-10
D------------------------------12----------------------
____________
E---------------------------------------------
B---------------------------------------------
G---------------------------------------------
D--------------9-------------9999--12-12-12-12
A----10-9-10-------10--------9999--12-12-12-12
D-10--------------------9----9999--12-12-12-12


Chorus

E-----------------------------------------------------------------------
B-----------------------------------------------------------------------
G------------------------------------------------11-11-11-11-12-12-12-12
D-14-14-14-14-14-14-14-0-10-10-10-10-10-10-10-0---x--x--x--x--x--x--x--x
A-14-14-14-14-14-14-14-0-10-10-10-10-10-10-10-0---9--9--9--9-10-10-10-10
D-14-14-14-14-14-14-14-0-10-10-10-10-10-10-10-0---0--0--0--0--0--0--0--0
                           *****ending one****************************
E---------------------------------------------------------------------
B---------------------------------------------------------------------
G-14-14-14-14-11-11-11-11---------------------------------------------
D--x--x--x--x--x--x--x--x--14-14-14-14-14-14-14-0-10-10-10-10-10-10-10
A-12-12-12-10--9--9--9--9--14-14-14-14-14-14-14-0-10-10-10-10-10-10-10
D--0--0--0--0--0--0--0--0--14-14-14-14-14-14-14-0-10-10-10-10-10-10-10

*************************************************
E------------------------------------------------  
B------------------------------------------------  
G-11-11-11-11-12-12-12-12-14-14-14-14-14-14-14-14  
D--x--x--x--x--x--x--x--x--x--x--x--x--x--x--x--x  
A--9--9--9--9-10-10-10-10-12-12-12-12-12-12-12-12
D--0--0--0--0--0--0--0--0--0--0--0--0--0--0--0--0

End of Chorus
then play riff A (only once)
then play riff B (the same way as the first time)   

then play chorus with second ending



*********************************************************************************
E---part A------------------------------------------------------------------------
B---------------------------------------------------------------------------------
G---------------------------------------------------------------------------------
D-14-14-14-14-14-14-14-12-10-10-10-10-10-10-10-12-5-5-5-5-5-5-5-5-9-9-9-9-9-9-9-12
A-14-14-14-14-14-14-14-12-10-10-10-10-10-10-10-12-5-5-5-5-5-5-5-5-9-9-9-9-9-9-9-12
D-14-14-14-14-14-14-14-12-10-10-10-10-10-10-10-12-5-5-5-5-5-5-5-5-9-9-9-9-9-9-9-12
[ Tab from: http://www.guitartabs.cc/tabs/p/papa_roach/last_resort_tab_ver_2.html ]
***************************ending two****************************************>>>>>
E---part B------------------------------------------------------------------------
B---------------------------------------------------------------------------------
G---------------------------------------------------------------------------------
D-14-14-14-14-14-14-14-12-10-10-10-10-10-10-10-12-5-5-5-5-5-5-5-5-9-9-9-9-9-9-9-9-
A-14-14-14-14-14-14-14-12-10-10-10-10-10-10-10-12-5-5-5-5-5-5-5-5-9-9-9-9-9-9-9-9-
D-14-14-14-14-14-14-14-12-10-10-10-10-10-10-10-12-5-5-5-5-5-5-5-5-9-9-9-9-9-9-9-9-

E--part c--------------------------------------------------------------------
B----------------------------------------------------------------------------
G-----------------7-7-7-7-7-7-7---12-12-12-12-12-12-12---11-11-11-11-11-11---
D-9-9-9-9-9-9-9---5-5-5-5-5-5-5---10-10-10-10-10-10-10----9--9--9--9--9--9-12
A-7-7-7-7-7-7-7---5-5-5-5-5-5-5---10-10-10-10-10-10-10----9--9--9--9--9--9-12
D-9-9-9-9-9-9-9---5-5-5-5-5-5-5---10-10-10-10-10-10-10----9--9--9--9--9--9-12

E--part d--------------------------------------------------------------------
B----------------------------------------------------------------------------
G-----------------7-7-7-7-7-7-7---12-12-12-12-12-12-12---11-11-11-11-11-11-11
D-9-9-9-9-9-9-9---5-5-5-5-5-5-5---10-10-10-10-10-10-10----9--9--9--9--9--9--9
A-7-7-7-7-7-7-7---5-5-5-5-5-5-5---10-10-10-10-10-10-10----9--9--9--9--9--9--9
D-9-9-9-9-9-9-9---5-5-5-5-5-5-5---10-10-10-10-10-10-10----9--9--9--9--9--9--9

play rhy.fig 1   4 times then...Riff A (go through it the full 2 times)

then the chorus, take second ending untill the end of part a then...


screamed"I      can't        go        on        living     this       way!"
E-----------------------------------------------------------------------
B-----------------------------------------------------------------------
G-----------------------------------------------11----12----14----11----
D-14-14-14-14-14-14-14-0-10-10-10-10-10-10-10----x-----x-----x-----x----
A-14-14-14-14-14-14-14-0-10-10-10-10-10-10-10----9----10----12-----9----
D-14-14-14-14-14-14-14-0-10-10-10-10-10-10-10----0-000-0-000-0-000-0-000

E----------------------------------------------------------------------------
B----------------------------------------------------------------------------
G-----------------------------------------------11----12----14-----12/14\12--
D-14-14-14-14-14-14-14-0-10-10-10-10-10-10-10----x-----x-----x------x--x--x--
A-14-14-14-14-14-14-14-0-10-10-10-10-10-10-10----9----10----12-----10/12\10--
D-14-14-14-14-14-14-14-0-10-10-10-10-10-10-10----0-000-0-000-0-000--0--0--0-0

					     palm muted________________
E---------------------------------------------------------------------------------
B---------------------------------------------------------------------------------
G------------------------------------------------------------------4-4-4-4-4-4-4-4
D-14-14-14-14-14-14-14-0-10-10-10-10-10-10-10----------------------2-2-2-2-2-2-2-2
A-14-14-14-14-14-14-14-0-10-10-10-10-10-10-10----------------------2-2-2-2-2-2-2-2
D-14-14-14-14-14-14-14-0-10-10-10-10-10-10-10-----0-0-0-0-0-0-0-0--2-2-2-2-2-2-2-2

E-------------------------------------------------------------------------------
B-------------------------------------------------------------------------------
G-12-12-12-12-12-12-12-12------11-11-11-11-12-12-12-12-14-14-14-14-11-11-11-11--
D-10-10-10-10-10-10-10-10-------x--x--x--x--x--x--x--x--x--x--x--x--x--x--x--x--
A-10-10-10-10-10-10-10-10-------9--9--9--9-10-10-10-10-12-12-12-12--9--9--9--9--
D-10-10-10-10-10-10-10-10---0---0--0--0--0--0--0--0--0--0--0--0--0--0--0--0--0-0

E-----------------------------------------------------------------------------
B-----------------------------------------------------------------------------
G-4-4-4-4-4-4-4-4--12-12-12-12-12-12-12-12----11-11-11-12-12-12-12-14-14-14-14
D-2-2-2-2-2-2-2-2--10-10-10-10-10-10-10-10-----x--x--x--x--x--x--x--x--x--x--x
A-2-2-2-2-2-2-2-2--10-10-10-10-10-10-10-10-----9--9--9--9-10-10-10-12-12-12-12
D-2-2-2-2-2-2-2-2--10-10-10-10-10-10-10-10-0---0--0--0--0--0--0--0--0--0--0--0

E--------------------------------------------------------------------------
B--------------------------------------------------------------------------
G-11-11-11-11---------------------------------------------------11-11-11-11
D--x--x--x--x----14-14-14-14-14-14-14-0-10-10-10-10-10-10-10-0---x--x--x--x
A--9--9--9--9----14-14-14-14-14-14-14-0-10-10-10-10-10-10-10-0---9--9--9--9
D--0--0--0--0-0--14-14-14-14-14-14-14-0-10-10-10-10-10-10-10-0---0--0--0--0

E-------------------------------------------------------------------------
B-------------------------------------------------------------------------
G-12-12-12-12-14-14-14-14-11-11-11-11-------------------------------------
D--x--x--x--x--x--x--x--x--x--x--x--x---14-14-14-14-14-14-14-14-14-14-14/2
A-10-10-10-10-12-12-12-12--9--9--9--9---14-14-14-14-14-14-14-14-14-14-14/2
D--0--0--0--0--0--0--0--0--0--0--0--0-0-14-14-14-14-14-14-14-14-14-14-14/2

and there its over...listen to the CD to get the timing and exact sound of it.
Comments