Papa Roach - Infest Chords & Tabs

 

Infest Chords & Tabs

Papa Roach Chords & Tabs

Version: 2 Type: Tab 0 ratings
1 star 2 stars 3 stars 4 stars 5 stars
comments

Infest Tab

   
Papa Roach
Infest
Tabbed by: mjwk_1986@yahoo.com


Dropped D tuning
pm - palm mute
/ -  slide
Intro

e|-------------------------------------------------
B|-------------------------------------------------
G|-------------------------------------------------
D|-00--77--33--77---22--33-00--77--33--77--22--33--
A|-00--77--33--77---22--33-00--77--33--77--22--33--
D|-00--77--33--77---22--33-00--77--33--77--22--33--
 let ring

1st verse
[ Tab from: http://www.guitartabs.cc/tabs/p/papa_roach/infest_tab_ver_2.html ]
e|-------------------------|
B|-------------------------|
G|--10 10--10--------------|
D|-------7-----10-10---10--|
A|-------------------7-----|
D|00-----------------------|
                          pm
e|--------------------------------------------------|
B|--------------------------------------------------|
G|---10-------10------10-----10----3----------------|
D|----x--------x-------x------x----x----------------|
A|-00-8-00--00-8-0--00-8-0-00-8-00-5----------------|
D|-00---00--00---0--00---0-00---00------------------|
   pm   pm  pm   pm pm   pm pm  pm 

Chorus

e|--------------------------------------|----------------|
B|--------------------------------------|----------------|
G|--------------------------------------|----------------|
D|7-7-7-7-7-7-7-7-9-9-9-9-10-10-10-10---|7777777722223333|
A|7-7-7-7-7-7-7-7-9-9-9-9-10-10-10-10-2x|7777777722223333|
D|7-7-7-7-7-7-7-7-9-9-9-9-10-10-10-10---|7777777722223333|
                                     (tens not 1s and 0s)

e|----------------|---------------------------------|
B|----------------|---------------------------------|
G|----10-10-10-10-|-----12/10/12------5-5-5-5-------|
D|-00-x--x--x--x--|-00--x-/-x/x---00--x-x-x-x-------|
A|-00-8--8--8--8--|-00--10/-8/10--00--3-3-3-3-------|
D|-00-------------|-00------------00----------------|
        then repeat this a couple times                       
Comments