Papa Roach - Infest Chords & Tabs

 

Infest Chords & Tabs

Papa Roach Chords & Tabs

Version: 1 Type: Bass Tab 0 ratings
1 star 2 stars 3 stars 4 stars 5 stars
comments

Infest Bass Tab

Here is Papa Roach's song : Infest
Artist: Papa Roach
Song: Infest
Tabbed By: Brian Lebo (BUDERFER@aol.com)


Intro

G|-----------------------------------------------
D|------------7-7--------------------------------
A|------5 5--------8--8--0-0---7-7--3-3----------
E|-----------------------------------------------


Main Part
             
G|-----------------------------------------------
D|-----------------------------------------------
A|---5-5--5-5-5---5--5-5--5-5-5----3-3-3---------
E|-----------------------------------------------

[ Tab from: http://www.guitartabs.cc/tabs/p/papa_roach/infest_btab.html ]
Pre Chorus
G|----------------------------- 
D|------------------------------
A|----0-0-0-0-2-2-2-2-3-3-3-3---
E|------------------------------

Chorus

G|---------------------------------------------------------------------------
D|---------------------------------------------------------------------------
A|----5 5--8----5 5--8-8----5-5-8--5-5-8-8-----0-0-3--0-0-3-3--0-0-3--0-0-3-3
E|---------------------------------------------------------------------------

Part during guitar solo
G|------------------------------ 
D|------------------------------
A|-------5 5 0 0 3 3 5 5 0 0 3 3
E|------------------------------

G|------------------------------ 
D|------------------------------  PLay as many times needed 
A|-------3-5-5--5---------------
E|------------------------------

Comments