Papa Roach - Do Or Die Chords & Tabs

 

Do Or Die Chords & Tabs

Papa Roach Chords & Tabs

Version: 1 Type: Tab 0 ratings
1 star 2 stars 3 stars 4 stars 5 stars
comments

Do Or Die Tab

Standard Tuning: EADGBe
PLay with Distortion for Guitar 2

Intro, Verse Guitar 1
|-----------------------------------------|
|-----------------------------------------|
|-----------------------------------------|
|-----------------------------------------|
|------2h4---2---2------------------------|
|-----------------------------------------|

Intro, Verse Guitar 2 (Plays over Guitar 1 Listen for timing)
|-----------------------------------------|
|-----------------------------------------|
|-----------------------------------------|
|----------2---1--------------------------|
|---------------------2h4-----------------|
|-----------------------------------------|

Guitar 2 plays this before Chorus 
(Listen for this)
|-----------------------------------------|
|-----------------------------------------|
|---4-------------------------------------|
|---4-------------------------------------|
|---2-------------------------------------|
|-----------------------------------------| Let Ring
[ Tab from: http://www.guitartabs.cc/tabs/p/papa_roach/do_or_die_tab.html ]
Bridge/Pre-Chorus  (Palm Muted)               Chorus   
|-----------------------------------------|  |----------|-----------|---------|-----------|
|-----------------------------------------|  |----------|-----------|---------|-----------|
|-----------------------------------------|  |----------|-----------|---------|-----------|
|-----------------------------------------|  |--9-9-9-9-|--6-6-6-6--|-4-4-4-4-|-----------|
|--7-7-7-7-7-7-7-7--9-9-9-9-9-9-9-9-------|  |--9-9-9-9-|--6-6-6-6--|-4-4-4-4-|--4-4-4-4--|
|--7-7-7-7-7-7-7-7--9-9-9-9-9-9-9-9-------|  |--7-7-7-7-|--4-4-4-4--|-2-2-2-2-|--4-4-4-4--|
|--5-5-5-5-5-5-5-5--7-7-7-7-7-7-7-7-------|  |----------|-----------|---------|--2-2-2-2--|

2nd Verse Intro Guitar 1 (Same as before) 
|-----------------------------------------|
|-----------------------------------------|
|-----------------------------------------|
|-----------------------------------------|
|------2h4---2---2------2h4---2---2-------|
|-----------------------------------------|

Guitar 2
|-----------------------------------------|
|-----------------------------------------|
|----------2---1--------------------------|
|------------------2--------2----1--------|
|--------------------4--------------2-----|
|-------------------------------------4---| (Rest of Verse is the same as Verse 1)

Feel free to email me at jak_d_lad@hotmail.com


Comments