Papa Roach - Decompression Period Chords & Tabs

 

Decompression Period Chords & Tabs

Papa Roach Chords & Tabs

Version: 1 Type: Tab 0 ratings
1 star 2 stars 3 stars 4 stars 5 stars
comments

Decompression Period Tab

   
Artist: Papa Roach	
Album: Lovehatetragedy
Song: Decompression Period
Tuning: From low to high (DADGBE) Drop D
Tabbed By: Keanan Brackenridge (Xtinction)

INTRO/VERSE

--#1
E|  --------------------------
B|  --------------------------
G|  --------------------------
D|  ---4-7-6h7-4-0-3----------
A|  -4------------------------
D|  --------------------------x3

E|  -------------------------------------
B|  -------------------------------------
G|  -------------------------------------
D|  -----2-4-----2-6------2------4-------
A|  ---0-------2--------0------0---------
D|  -0-------2--------0------0-----------

--#2
E|  -----------------------------------------
B|  -----------------------------------------
G|  -----------------------------------------
D|  ---4-7-6h7-4-0-3-------------------------
A|  -4-----------------4-5-2-4-0-------------
D|  -----------------------------------------

E|  ------------2----------------------------------------
B|  --------------3--------------------------------------
G|  -------2--------2------------------------------------
D|  -----2---2------------2----x--5-/-6-6-x-5-/-6-6------
A|  ---0----------------0------x--3-/-4-4-x-3-/-4-4------
D|  -0----------------0----------------------------------

--#3
E|  --------------------------
B|  --------------------------
G|  --------------------------
D|  ---4-7-6h7-4-0-3----------
A|  -4------------------------
D|  --------------------------

E|  -------------------------------------
B|  -------------------------------------
G|  -------------------------------------
D|  -----2-4-----2-6------2------4-------
A|  ---0-------2--------0------0---------
D|  -0-------2--------0------0-----------

--#2
E|  -----------------------------------------
B|  -----------------------------------------
G|  -----------------------------------------
D|  ---4-7-6h7-4-0-3-------------------------
A|  -4-----------------4-5-2-4-0-------------
D|  -----------------------------------------

E|  ------------2---------------------------------------
B|  --------------3-------------------------------------
G|  -------2--------2-----------------------------------
D|  -----2---2------------2----x--5-/-6-6-x-5-/-6-6-----
A|  ---0----------------0------x--3-/-4-4-x-3-/-4-4-----
D|  -0----------------0---------------------------------

Chorus
E|  ------------------------------------------------------
B|  ------------------------------------------------------
G|  -------------------6-7-4-6-0--------------------------
D|  -4-4-4-4-4-4-3-3-3-6-7-4-6-0-0-0-0-0-0-0-0-0-0-0-0-0--
A|  -4-4-4-4-4-4-3-3-3-4-5-2-4-0-0-0-0-0-0-0-0-0-0-0-0-0--
D|  -4-4-4-4-4-4-3-3-3-----------0-0-0-0-0-0-0-0-0-0-0-0--

E|  ---------------------------------------
B|  ---------------------------------------
G|  ---------------------------------------
D|  -2-2-2-2-2-2-2-x-2-x-2-2-3-3-----------
A|  -2-2-2-2-2-2-2-x-2-x-2-2-3-3-----------
D|  -2-2-2-2-2-2-2-x-2-x-2-2-3-3-----------

E|  --------------------------------------------------------
B|  --------------------------------------------------------
G|  --------------------------------------------------------
D|  -4-x-x-4-4-4-4-3-x-x-3-3-3-3-2-x-x-2-2-2-2-0-x-x-0-2-2-2
A|  -4-x-x-4-4-4-4-3-x-x-3-3-3-3-2-x-x-2-2-2-2-0-x-x-0-2-2-2
D|  -4-x-x-4-4-4-4-3-x-x-3-3-3-3-2-x-x-2-2-2-2-0-x-x-0-2-2-2
[ Tab from: http://www.guitartabs.cc/tabs/p/papa_roach/decompression_period_tab.html ]
E|  --------------------------------------------------------
B|  --------------------------------------------------------
G|  --------------------------------------------------------
D|  -4-x-x-4-4-4-4-7-x-x-7-7-7-7-9-x-x-9-9-9-9-12-12-11-11--
A|  -4-x-x-4-4-4-4-7-x-x-7-7-7-7-9-x-x-9-9-9-9-12-12-11-11--
D|  -4-x-x-4-4-4-4-7-x-x-7-7-7-7-9-x-x-9-9-9-9-12-12-11-11--
then it goes back to the intro/verse pt.
where the order is

#1
#3
#2
when leading into the chorus play this 				        ^^^^
D|2-2-2-3-3-3--------------                        
A|2-2-2-3-3-3--------------         
D|2-2-2-3-3-3--------------	

Chorus
E|  -----------------------
B|  ----------------------
G|  -----------------------
D|  -4-x-x-4-4-4-4-3-x-x-3-3-3-3-2-x-x-2-2-2-2-0-x-x-0-2-2-2
A|  -4-x-x-4-4-4-4-3-x-x-3-3-3-3-2-x-x-2-2-2-2-0-x-x-0-2-2-2
D|  -4-x-x-4-4-4-4-3-x-x-3-3-3-3-2-x-x-2-2-2-2-0-x-x-0-2-2-2

E|  -------------------------------------------
B|  -------------------------------------------
G|  -------------------------------------------
D|  -4-x-x-4-4-4-4-7-x-x-7-7-7-7-9-x-x-9-9-9-9-
A|  -4-x-x-4-4-4-4-7-x-x-7-7-7-7-9-x-x-9-9-9-9-
D|  -4-x-x-4-4-4-4-7-x-x-7-7-7-7-9-x-x-9-9-9-9-

E|  -------------------------------------------
B|  -------------------------------------------
G|  -------------------------------------------
D|  -12-12-12-11-11-11-------------------------
A|  -12-12-12-11-11-11-------------------------
D|  -12-12-12-11-11-11-------------------------

E|  -----------------------
B|  ----------------------
G|  -----------------------
D|  -4-4-4-4-4-4-3-3-3-3-3-3-2-2-2-2-2-2-0-0-0-2-2-2----
A|  -4-4-4-4-4-4-3-3-3-3-3-3-2-2-2-2-2-2-0-0-0-2-2-2----
D|  -4-4-4-4-4-4-3-3-3-3-3-3-2-2-2-2-2-2-0-0-0-2-2-2----

E|  -----------------------
B|  ----------------------
G|  -----------------------
D|  -4-4-4-4-4-4-7-7-7-7-7-7-9-9-9-9-9-9-12-12-12-11-11-11--
A|  -4-4-4-4-4-4-7-7-7-7-7-7-9-9-9-9-9-9-12-12-12-11-11-11--
D|  -4-4-4-4-4-4-7-7-7-7-7-7-9-9-9-9-9-9-12-12-12-11-11-11-

after this part u hear a SOLO which goes
E|  ----------------------------------------------------
B|  ----------------------------------------------------
G|  ----------------------------------------------------
D|  ----------------------------------------------------
A|  -11-9-7-9--11-9-7-9--11-9-11-12-11-12-14-12-14-16---x2
D|  ----------------------------------------------------

E|  ---------------------------------------
B|  ---------------------------------------
G|  ------------21-------------------------
D|  -16-19-16-----19-16--------------------x4
A|  ---------------------------------------
D|  ---------------------------------------

E|  ------------------------------------------
B|  ------------------------------------------
G|  ----------------21-21---------------------
D|  -16-19-19-16---------19-19----------------x4
A|  ------------------------------------------
D|  ------------------------------------------

Outro 
E|  ----------------------------------------------------
B|  ----------------------------------------------------
G|  ----------------------------------------------------
D|  -4-4-4-4-3-3-3-3-0-0-0-0-2-2-2-2---0-0-0-2-2-3------
A|  -4-4-4-4-3-3-3-3-0-0-0-0-2-2-2-2---0-0-0-2-2-3------
D|  -4-4-4-4-3-3-3-3-0-0-0-0-2-2-2-2---0-0-0-2-2-3------


E|  -----------------------------------------------
B|  -----------------------------------------------
G|  -------------6-7-4-6-0-------------------------
D|  -4-4-4-4-3-3-6-7-4-6-0-0-0-0-0-0-0-0-2---------
A|  -4-4-4-4-3-3-4-5-2-4-0-0-0-0-0-0-0-0-2---------
D|  -4-4-4-4-3-3-----------0-0-0-0-0-0-0-2---------

PAPA ROACH!!
Comments