Papa Roach - Decompression Period Chords & Tabs

 

Decompression Period Chords & Tabs

Papa Roach Chords & Tabs

Version: 1 Type: Bass Tab

Decompression Period Bass Tab

   
Artist: Papa Roach
Album: lovehatetragedy
Song: Decompression Period
Tuning: D A D G
Tabbed By: Cody Fuller, "rockerc"

Intro:

Bass enters at 9 seconds

Part 1
G|----------------------------------------------------|
D|----------------------------------------------------|
A|----------------------------------------------------|
D|-4---------2---0--------2--------0---------2--------|

Part 2
G|----------------------------------------------------------------------------|
D|--------------------------------------------------------------------2-----2-|
A|-----------------4-5-2-4-0-----------------2------2-------------2h3---2h3---|
D|-4-------------------------------0---------------------0--------------------|

Repeat Part 1
Repeat Part 2


Chorus:

G|--------------------------------------------------------------------------|
D|--------------------------------------------------------------------------|
A|--------------------4-5-2-4-0--------------2------2-----------------------|
D|-4--4--4--4--2--2-----------------0--------------------0-------2--2--4--4-|

G|-----------------------------------------|
D|-----------------------------------------|
A|-----------------------------------------|
D|-4----4----2----2----0----0----2----0----|

G|-------------------------------------------------|
D|-------------------------------------------------|
A|-------------------------------------------------|
D|-4----4----2----2----0----0----2-2-2-2-0-0-0-0---|


G|----
D|----
A|----
D|-4--

Verse:

G|----
D|----
A|----
D|-4--

Bass enters again after 9 seconds

Part 1
G|----------------------------------------------------|
D|----------------------------------------------------|
A|----------------------------------------------------| x2
D|-4---------2---0--------2--------0---------2--------|


Part 2

G|------|
D|------|
A|------|
D|-4----|

Don't play for a bit while it's just Jerry (guitars) and Jacoby (vocals) playing, then 
in with this part right when the distorted guitars come back in
G|-------------|
D|-------------|
A|-------------|
D|-2--2--4--4--|
[ Tab from: http://www.guitartabs.cc/tabs/p/papa_roach/decompression_period_btab.html ]
Chorus 2:
G|-----------------------------------------|
D|-----------------------------------------|
A|-----------------------------------------|
D|-4----4----2----2----0----0----2----0----|

G|-------------------------------------------|
D|-------------------------------------------|
A|-------------------------------------------|
D|-4----4----2----2----0----0----2--2--0--0--|

G|-------------------------------------------------|
D|-------------------------------------------------|
A|-------------------------------------------------|
D|-4--4--4--4--2--2--2--2--0--0--0--0--2--2--0--0--|

G|-----------------------------------------------------|
D|-----------------------------------------------------|
A|-----------------------------------------------------|
D|-4--4--4--4--2--2--2--2--0--0--0--0--2-2-2-2-0-0-0-0-|

Bridge:

G|-----------------------------------------------------------|
D|-----------------------------------------------------------|
A|--------4-------------2-------------2----------------------|
D|-4--4-4---4-4--2--2-2---2-2--0--0-0---0-0--2-2-2-2-2-2-2-2-|

G|-----------------------------------------------------|
D|-----------------------------------------------------|
A|-----------------------------------------------------|
D|-4--4--4--4--2--2--2--2--0--0--0--0--2-2-2-2-0-0-0-0-|


G|------------------------------------------------|
D|------------------------------------------------|
A|------------------------------------------------|
D|-4--4--4--4--2--2--2--2--0--0--0--0--2--2--0--0-|

G|---------------------------------------------------------------------|
D|---------------------------------------------------------------------|
A|---------------------------------------------------------------- x 2-|
D|-4-4-4-4-4-4-4-4-2-2-2-2-2-2-2-2-0-0-0-0-0-0-0-0-2-2-2-2-0-0-0-0-----|

Chorus 3:

G|------------------------------------------------------------|
D|------------------------------------------------------------|
A|----------------------------------------------------------2-|
D|-4-------2--------0--------2---------0--0-------2--2--------|

G|------------------------------------------------------------|
D|------------------------------------------------------------|
A|--------------------4-5-2-4-0-------------------------------|
D|-4-------2---------------------------0--------2--------0----|