Papa Roach - Dead Cell Chords & Tabs

 

Dead Cell Chords & Tabs

Papa Roach Chords & Tabs

Version: 2 Type: Bass Tab 0 ratings
1 star 2 stars 3 stars 4 stars 5 stars
comments

Dead Cell Bass Tab

   
Artist: Papa Roach
Song: Dead Cell
Album: Infest
Tabbed by: A.B (purplel50@hotmail.com)
Date: 10/3 2001
Time started: 11:38
Time finished: 12:01

This is tabbed from fresh (as i cant find any other web site with it)
so feel free to alter it if it's wrong. It's probably played with a
plectrum to get the quick 'picky' sound during the second verse.
Drop D tuning.


After guitar intro
1st Verse (normal):

G----------------|----------------|----------------|----------------|
D----------------|----------------|----------------|----------------|
A----------------|----------------|----------------|----------------|
D-2-0-2-0-2-2--0-|-2-0-2-0-2-2--0-|-2-0-2-0-2-2--0-|-2-0-4-4-5p4----|

G----------------|----------------|----------------|----------------|
D------SAME------|-----AS---------|---ABOVE--------|----------------|
A----------------|----------------|----------------|----2-2-2-------|
D----------------|----------------|----------------|--2------5-5----|
(((Play through twice)))


2nd Verse (broken up):
[ Tab from: http://www.guitartabs.cc/tabs/p/papa_roach/dead_cell_btab_ver_2.html ]
G-----------------|----------------|----------------|----------------|
D-----------------|----------------|----------------|----------------|
A-----------------|----------------|----------------|----------------|
D--2-0-2-0-2-0-2-0|--2-2-2--2-0----|-2-0-2-0-2-0-2-0|-2-2-4-4-5p4----|
(I think thats right - it might all be one note)

G-----------------|----------------|----------------|----------------|
D------SAME-------|----AS----------|---ABOVE--------|----------------|
A-----------------|----------------|----------------|---2-2-2--------|
D-----------------|----------------|----------------|----------5-5-5-|
(((Play through twice)))


Chorus:
G-----------------|
D-----------------|
A-----------------|
D--2/0-0-0-0------|
(((Play through 8 times)))

>>>Then 2nd Verse through again<<<<

Then Chorus:
G-----------------|
D-----------------|
A-----------------|
D--2/0-0-0-0------|

Play through 7 times, on eigth play:

G-----------------|
D-2-2-2-2-2-2-2-2-|
A-----------------|
D-----------------|

>>>Then 1st Verse through again (4 times)<<<<

>>>Then 2nd Verse through again<<<

>>>Then Chorus<<<

>>>Then 1st Verse<<<

THen Chorus like this:

G-----------------|
D-----------------|
A-----------------|
D--2/0-0-0-0------|(play 4 times then)

G--------------------|
D--------------------|
A--------------------|
D--2-2--2-2--2-2--2-2|

>>>>Then 1st Verse (through once)<<<<

THen Chorus like this:

G-----------------|
D-----------------|
A-----------------|
D--2/0-0-0-0------|(play 4 times then)

G--------------------|
D--------------------|
A--------------------|
D--2-2---------------|
((End))
Comments