Papa Roach - Broken Home Chords & Tabs

 

Broken Home Chords & Tabs

Papa Roach Chords & Tabs

Version: 1 Type: Bass Tab 0 ratings
1 star 2 stars 3 stars 4 stars 5 stars
comments

Broken Home Bass Tab

   
ARTIST: PAPA ROACH
SONG: BROKEN HOME
TABBED BY: CHRIS SAVARD
EMAIL: chris_savard@hotmail.com

I had got this tab and it didn't seem right. So I did it my self. I put
in the CD times if it helps.
ARRANGED FOR A 5-STRING BASS  

Intro -rest 0:00

CHORUS (PLAY 1X) (TIME 0:10)
G------------------------------------------------------
D----4---------4---------4---------4---------4---------
A------4---------4---------4---------4---------4-------
E-2------2--2------2--2------2--2------2--2------2-----
B------------------------------------------------------

G------------------------------------------------------
D-----------------------------4------------------------
A-------------------------------4----------------------
E-0-2-2----0-2-2----0-2-2--2------2--0-2-2---0-2-------
B------------------------------------------------------

1 VERSE (PLAY 12X) (TIME 0:30)
G---------------------------    
D---------------------------             
A---------------------------           
E--2-2----------------0-0-0-         
B-------0-2-2--2-3-3--------                           

(PLAY 2X) (TIME 1:01)
G------------------------------------------------------
D------------------------------------------------------
A------------------------------5-5-5-5-4-4-4-4-2-2-2-2-
E-2-2-0--2-2-0--2-2-0--2-2-2-2-------------------------
B------------------------------------------------------

G---------                                             
D---------                                             
A---------                                            
E-5-5-5-5-                                             
B---------                                             

BRIDGE (PLAY 1X) (TIME 1:11)
G--------------------------------------               
D--------------------------------4-----               
A----------------------------------4---               
E-0-2-2--0-2-2--0-2-2--0-2-2--2------2-               
B--------------------------------------                

G---------------------                                 
D---------------------                                 
A---------------------                                 
E-0-2-2--0-2-2--0-2-2-                                 
B---------------------                                 


2 VERSE (PLAY 8X) (TIME 1:21)
G---------------------------                           
D---------------------------                           
A---------------------------                           
E--2-2----------------0-0-0-                           
B-------0-2-2--2-3-3--------                           

(PLAY 2X) (TIME 1:41)
G------------------------------------------------------
D------------------------------------------------------
A------------------------------5-5-5-5-4-4-4-4-2-2-2-2-
E-2-2-0--2-2-0--2-2-0--2-2-2-2-------------------------
B------------------------------------------------------
[ Tab from: http://www.guitartabs.cc/tabs/p/papa_roach/broken_home_btab.html ]
G---------                                             
D---------                                             
A---------                                            
E-5-5-5-5-                                             
B---------                                             

(PLAY 4X) (TIME 1:51)
G------------------------------------------------------
D------------------------------------------------------
A-----------------5-5-5-5-4-4-4-4-2-2-2-2--------------
E-2-2-2-2-2-2-2-2-------------------------5-5-5-5------
B------------------------------------------------------


INTERLUDE (PLAY 1X)(TIME 2:12)
G--------------------------------------------         
D--------------------------------------------         
A--------------------------------------------         
E-2-2--2-2-0-0-2-2--2-2-0-0-2-2--2-2-0-0-2-2-         
B--------------------------------------------          

G-------------                                         
D-------------                                         
A-------------                                         
E-2-2-0-0-2-2-                                         
B-------------                                         

CHORUS (PLAY 1X)(TIME 2:24)
G------------------------------------------------------
D----4---------4---------4---------4---------4--2------
A------4---------4---------4---------4-----------------
E-2------2--2------2--2------2--2------2--2------------
B------------------------------------------------------

G----------------------------------------             
D----4---------4---------4---------4-----             
A------4---------4---------4---------4---             
E-2------2--2------2--2------2--2------2-             
B----------------------------------------              

2 BRIDGE (PLAY 1X) (TIME 2:44)
G------------------------------------------------     
D------------------------------------------------     
A------------------------------------------------     
E-2-2--2--2-2--2--2-2--2--2-2--2--2-2--2--2-2--2-     
B------------------------------------------------      

G------------------------------------------------------
D------------------------------------------------------
A------------------------------------------------------
E-2-2--2--2-2--2---2-----------------------------------
B------------------------------------------------------

1 OUTRO (PLAY 12X) (TIME 2:57)
G---------------------------                           
D---------------------------                           
A---------------------------                           
E--2-2----------------0-0-0-                           
B-------0-2-2--2-3-3-------- 

2 OUTRO (PLAY 1X) (TIME 3:28)          
G------------------------------------------------------
D------------------------------------------------------
A------------------------------------------------------
E-2-2-2-2---2-2-2-2---2-2-2-2---2-2-2-2---------2------
B------------------------------------------------------
                                               /\
             PLAY LAST NOTE 5 TIMES AS A HOLE NOTE

Comments