Papa Roach - Born With Nothing Die With Everything Chords & Tabs

 

Born With Nothing Die With Everything Chords & Tabs

Papa Roach Chords & Tabs

Version: 1 Type: Bass Tab 0 ratings
1 star 2 stars 3 stars 4 stars 5 stars
comments

Born With Nothing Die With Everything Bass Tab

Papa Roach - Born with nothing, die with everything
Tabbed By: Cameron
EMail: Laxman265@aol.com


this is the best song on the cd in my oppinion. aightwell this songs not 
that hard u just play it fast i think i got this all right

guitar does intro then start (verse)
G|-------------------------------------                   ___
D|-------------------------------------                      |
A|------1010-------------------------------                  |
E|-8888------88--11----------------------------x2            |
B|--------------------11111111-------------------            |
                                                             |after that play 
G|-------------------------------------                      |this over again
D|-------------------------------------                      |twice
A|---------1010----------------------------                  |
E|-----------------11-----------------------                 |
B|---9999-------99-----11111111-----------------------x2   __|
[ Tab from: http://www.guitartabs.cc/tabs/p/papa_roach/born_with_nothing_die_with_everything_btab.html ]
pre chorus
G|-------------------------------------
D|-------------------------------------
A|-------------------------------------
E|-8-88-10101010-------10101010---------
B|----------------9-99--------------------

chrous
G|-------------------------------------
D|-------------------------------------
A|-------------------------------------
E|-8888888888-----------8888888888----------
B|------------999999999------------999999999

Play verse

pre chorus

chorus

"searching and finding the truth inside myself"
G|-------------------------------------
D|-------4-2-4------4-2-4-----4-2-4----4-2-4
A|-------------4----------4------------------4
E|--------------------------------------------
B|---99----------99---------99------99---------

the part after that

G|-------------------------------------
D|-------------------------------------
A|-------------------------------------
E|-------------------------------------
B|-xxxxxxxxxxxxxxxxxxxxxxxxxxxxxxxxxxx   (through that hole part) n 
                                          when he says born with nothing
                                          die with everything play chorus
                                          the second time he does it play

G|-------------------------------------
D|-------------------------------------
A|-------------------------------------
E|-------------------------------------
B|----4-4-4-4-4-4-4-4-4-4-4------------
Comments