Papa Roach - Blood Brothers Chords & Tabs

 

Blood Brothers Chords & Tabs

Papa Roach Chords & Tabs

Version: 8 Type: Tab 0 ratings
1 star 2 stars 3 stars 4 stars 5 stars
comments

Blood Brothers Tab

Ive seen a lot of wrong tabbing for this song. this is the correct version (its in D minor sillies,
not "droped d tuning")

intro (heavy distortion)
|--------------|   |-----------------|  |---------------------|
|-----6--5-----|   |------6----------|  |------6--------------|
|---77-7---5---|   |---77--7-555-7-5-|  |---77---7-5----------|
|------------7-|   |-----------------|  |------------7-7-8-7--|
|--------------|   |-----------------|  |---------------------|
|--------------|   |-----------------|  |---------------------|
   (part "a")          (ending 1)             (ending 2)

it goes: part "a"->ending 1-> part "a"-> ending 2 (repeat)

verse part
|-------------------|
|-------------------|
|-------------------|
|------32-----32~---|
|---5----3------3---|
|---------5------55-| (repeat here also)
[ Tab from: http://www.guitartabs.cc/tabs/p/papa_roach/blood_brothers_tab_ver_8.html ]
chorus part is:
|-----------------------------|
|-----------------------------|
|-----------------------------|
|---7-7---7-7-7---7-7---7-7-7-|
|---5-5---5-5-5---5-5---5-5-5-|
|-----------------------------|  (repeat)

this is the other part, the transition
|------------------------------------------------------------------
|------------------------------------------------------------------
|------------------------------------------------------------------
|--------3---2------------3-----5--------3----2------------3-------
|---5-5----5---3-----5-5----5-3-3---5-5-----5---3-----5-5----5-3-3-
|----------------5--------------------------------5--------------1-

-------------------------------------------------------------1---|
-------------------------------------------------------------1---|
-------------------------------------------------------------3---|
--------3---2----------3-----5--------3---2----------3-------3---|
----5-5---5---3----5-5---5-3-3----5-5---5---3----5-5---5-3-3-1---|
---------------5------------------------------5------------1-----|

well thats all just kinda keep repeating this stuff throughout the song. 

tabbed by Joe N. joefo48@hotmail.com
Comments