Papa Roach - Black Clouds Chords & Tabs

 

Black Clouds Chords & Tabs

Papa Roach Chords & Tabs

Version: 1 Type: Tab 0 ratings
1 star 2 stars 3 stars 4 stars 5 stars
comments

Black Clouds Tab

   
Artist: Papa Roach/Jerry Horton 
Song:   Black Clouds
Album:  Lovehatetragedy
Tuning: Dropped D

Intro:
--------
Guitar 1:
e---------------------------------------------|
h---------------------------------------------|
g---------------------------------------------|
D-8~~8-8-8-8-3~~3-3-3-3-8~~8-8-8-8-4~~4-4-4-4-|
A-8~~8-8-8-8-1~~1-1-1-1-8~~8-8-8-8-4~~4-4-4-4-|
D-8~~8-8-8-8-1~~1-1-1-1-8~~8-8-8-8-4~~4-4-4-4-|


Guitar 2: (clean with chorus effect...maybe more effects) 

e---------------4------1-|
h-1--2-1-4--2-1----2-1---|
g------------------------|
D------------------------|  
A------------------------|
D------------------------|

4 Times

Verse: 
--------
Guitar 1:
e-------------------------------------|
h-------------------------------------|
g-------------------------------------|
D-8~~3~~8~~4~~1~~4~~1~~4~~1~~4~~1~~4~~|
A-8~~1~~8~~4~~1~~4~~1~~4~~1~~4~~1~~4~~|
D-8~~1~~8~~4~~1~~4~~1~~4~~1~~4~~1~~4~~|


Guitar 2: Intro Riff 8 times

"This is making me crazy..."


Bridge:
---------

Guitar 1:
e-------------------------|
h-------------------------|
g-------------------------|
D-1-1-1-3-3-3-4-4-4-6-6-6-|
A-1-1-1-3-3-3-4-4-4-6-6-6-|
D-1-1-1-3-3-3-4-4-4-6-6-6-|

"Black clouds they rain down but they can't kill the sun"

Chorus:
---------

Guitar 1:
e---------------------------------|
h---------------------------------|
g---------------------------------|
D-8-8-8-8-1-1-1-1-4-4-4-4-1-1-1-1-| X 4
A-8-8-8-8-1-1-1-1-4-4-4-4-1-1-1-1-|
D-8-8-8-8-1-1-1-1-4-4-4-4-1-1-1-1-|
[ Tab from: http://www.guitartabs.cc/tabs/p/papa_roach/black_clouds_tab.html ]
"Confession of depression, this life I'm second-guessing"

Verse  X1
Bridge X1
Chorus X1

Bridge 2:
-----------
Guitar 1:
e-------------------------|
h-------------------------|
g-------------------------|
D-4-4-4-1-1-1-4-4-4-6-6-6-|
A-4-4-4-1-1-1-4-4-4-6-6-6-|
D-4-4-4-1-1-1-4-4-4-6-6-6-|

"Black clouds they rain down but they can't kill the sun "

Verse 2:
----------
Guitar 1:
e-----------|
h-----------|
g-----------|
D-6-8~~8-4~~| 
A-6-8~~8-4~~|
D-6-8~~8-4~~|

"inside"
Guitar 2: Intro riff 2 times
 
Well, I can't figure out the clean chords he is playing then...
but I always play it this way:

Guitar 1: (clean)
e--------------|
h--------------|
g-3~~6~~3~~6~~-|    
D-3~~6~~3~~6~~-|
A-1~~4~~1~~4~~-|
D-1~~4~~1~~4~~-|

"still looking for signs of light, this black clouds keep"
Guitar 1: 
e--------------------|
h--------------------|
g--------------------|
D-4--4-4-1~~4~~1~~4~~|
A-4--4-4-1~~4~~1~~4~~|
D-4--4-4-1~~4~~1~~4~~|

"following me, I return to my shelter..."

Bridge 1 X1
Chorus   X1

Chorus 2:
----------------------------------|
e---------------------------------|
h---------------------------------|
g---------------------------------|
D-8-8-8-8-1-1-1-1-4-4-4-4-1-1-1-1-| X2 
A-8-8-8-8-1-1-1-1-4-4-4-4-1-1-1-1-|
D-8-8-8-8-1-1-1-1-4-4-4-4-1-1-1-1-|

Bridge 2 X1

outro:
--------
Guitar 1:
e------------|
h------------|
g------------|
D-6-8~~3~~8~~|
A-6-8~~1~~8~~|
D-6-8~~1~~8~~|

Guitar 2: Intro riff 1 time


Tabbed by: Cru$}{3r - ChristophVIPER@aol.com





Comments