Papa Roach - Binge Chords & Tabs

 

Binge Chords & Tabs

Papa Roach Chords & Tabs

Version: 3 Type: Tab 0 ratings
1 star 2 stars 3 stars 4 stars 5 stars
comments

Binge Tab

   
----------------------------------------------------------------------
			     BINGE - Papa Roach
----------------------------------------------------------------------

By: ck_dubs
Played in drop D tuning
Slide Down    \
Scratch       x

I've put exactly how many times u need to hit each chord, so
so this 55 is one complete down and up stroke....if that makes sense
        55
        55

Intro:  0:00 - 0:11       0:11 - 0:31
e|-----------------------------------------
B|-----------------------------------------
G|------------------------7--6-------------
D|-5555555555555555-------7--6--7--5-------
A|-5555555555555555-------5--4--7--5-------
D|-5555555555555555-(X4)--------7--5-(X2)--

Second Part of Intro:
e|-------------------------------------------------------------------
B|-------------------------------------------------------------------
G|-------------------------------------------------------------------
D|-555555555555555555555555---------55555555---------55555555--------
A|-555555555555555555555555--5-3-6--55555555--5-3-6--55555555--5-3-6-
D|-555555555555555555555555---------55555555---------55555555--------

e|-----------------------------------
B|-----------------------------------
G|-----------------------------------
D|-55555555---------55555555---------
A|-55555555--5-3-6--55555555--5-3-6--(Goes right into verse)
D|-55555555---------55555555---------

1st Verse:
e|-----------------------------------------------------------------
B|-----------------------------------------------------------------
G|-----------------------------------------------------------------
D|-55555555--------55555555--------55555555--------55555555--------
A|-55555555-5-3-6--55555555-5-3-6--55555555-5-3-6--55555555-5-3-6--
D|-55555555--------55555555--------55555555--------55555555--------

e|-------------------------------------------------------------------
B|-------------------------------------------------------------------
G|-------------------------------------------------------------------
D|-11111111--------11111111--------11111111--------11111111----------
A|-11111111-5-3-6--11111111-5-3-6--11111111-5-3-6--11111111-5-3-6-5--
D|-11111111--------11111111--------11111111--------11111111----------

2nd Verse: (pretty much same as the first)
e|-----------------------------------------------------------------
B|-----------------------------------------------------------------
G|-----------------------------------------------------------------
D|-55555555--------55555555--------55555555--------55555555--------
A|-55555555-5-3-6--55555555-5-3-6--55555555-5-3-6--55555555-5-3-6--
D|-55555555--------55555555--------55555555--------55555555--------

e|-------------------------------------------------------------------
B|-------------------------------------------------------------------
G|-------------------------------------------------------------------
D|-11111111--------11111111--------11111111--------11111111----------
A|-11111111-5-3-6--11111111-5-3-6--11111111-5-3-6--11111111-5-3-6-5--
D|-11111111--------11111111--------11111111--------11111111----------

Chorus:
Strum this                        (Chorus Outro)
e|--------------------------    -------------------
B|--------------------------    -------------------
G|--------------------------    -------------------
D|--5--3--5--3--1--3--1--3--    --55555555--------- (Goes right into
A|--5--3--5--3--1--3--1--3--    --55555555--5-3-6--  3rd verse)
D|--5--3--5--3--1--3--1--3-- X2 --55555555--------- X4
[ Tab from: http://www.guitartabs.cc/tabs/p/papa_roach/binge_tab_ver_3.html ]
3rd Verse: (same as all the others)
e|------------------------------------------------------------------
B|------------------------------------------------------------------
G|------------------------------------------------------------------
D|-55555555--------55555555--------55555555--------55555555---------
A|-55555555-5-3-6--55555555-5-3-6--55555555-5-3-6--55555555--5-3-6--
D|-55555555--------55555555--------55555555--------55555555---------

e|-------------------------------------------------------------------
B|-------------------------------------------------------------------
G|-------------------------------------------------------------------
D|-11111111--------11111111--------11111111--------11111111----------
A|-11111111-5-3-6--11111111-5-3-6--11111111-5-3-6--11111111-5-3-6-5--
D|-11111111--------11111111--------11111111--------11111111----------

Chorus:
Strum this                  
e|--------------------------   
B|--------------------------    
G|--------------------------    
D|--5--3--5--3--1--3--1--3--    
A|--5--3--5--3--1--3--1--3--    
D|--5--3--5--3--1--3--1--3-- X2 

Bridge:
e|------------------------------------------------------------
B|------------------------------------------------------------
G|------------------------------------------------------------
D|--5555---------------5555---------------1111----------------
A|--5555--8-8-8-8-5-8--5555--8-8-8-8-5-8--1111--8888\6666\555-
D|--5555---------------5555---------------1111----------------

e|----------------------
B|----------------------
G|----------------------
D|-1111-----------------
A|-1111--8888\6666\555--
D|-1111----------------- X3

Part After Bridge: "You better sit back down, You better put that down..."
e|--------------------------------------------------------------------
B|--------------------------------------------------------------------
G|--------------------------------------------------------------------
D|--55555555-88888888-55555555-88888888-111111111111111111111111-11-1-
A|--55555555-88888888-55555555-88888888-111111111111111111111111-11-1-
D|--55555555-88888888-55555555-88888888-111111111111111111111111-11-1-

e|-----------------------------------------------------------------------
B|-----------------------------------------------------------------------
G|-----------------------------------------------------------------------
D|-5555555555555555-3333333333333333-1111111111111111-00000000-33333333--
A|-5555555555555555-3333333333333333-1111111111111111-00000000-33333333--
D|-5555555555555555-3333333333333333-1111111111111111-00000000-33333333--

5th Verse: "I am on a binge, I wish things would change...."
e|--------------------------------------------------------------------
B|--------------------------------------------------------------------
G|-----------------------------------777777777777777------------------
D|-5555555555555555-8888888888888888-777777777777777-3333333333333333-
A|-5555555555555555-8888888888888888-555555555555555-3333333333333333-
D|-5555555555555555-8888888888888888-----------------3333333333333333- X3 then do this

e|---------------------------------------------------------------------
B|---------------------------------------------------------------------
G|-----------------------------------777777777777777--10x10x10x10x10---
D|-5555555555555555-8888888888888888-777777777777777--10x10x10x10x10---
A|-5555555555555555-8888888888888888-555555555555555--08x08x08x08x08---
D|-5555555555555555-8888888888888888-----------------------------------

Outro:
e|--------------------------------------------------------------------
B|--------------------------------------------------------------------
G|--------------------------------------------------------------------
D|-55555555--------55555555--------55555555--------55555555-----------
A|-55555555-5-3-6--55555555-5-3-6--55555555-5-3-6--55555555-888-10-6--
D|-55555555--------55555555--------55555555--------55555555-----------
Comments