Papa Roach - Between Angels And Insects Chords & Tabs

 

Between Angels And Insects Chords & Tabs

Papa Roach Chords & Tabs

Version: 5 Type: Tab 0 ratings
1 star 2 stars 3 stars 4 stars 5 stars
comments

Between Angels And Insects Tab

"Between Angels and Insects"	
Papa Roach

Tabbed by Emilio Collado   neckem@animail.net

Tuning = Drop D (seven string)

Intro
E------------------------------------------------------------------------------------------------------------------------------------------
B------------------------------------------------------------------------------------------------------------------------------------------
G------------------------------------------------------------------------------------------------------------------------------------------
D------------------------------------------------------------------------------------------------------------------------------------------
A---8-7-10-8-7h8---8-7-10-8-7h8---8-7-10-8-7h8----8-7-10-8----8p7----------------------------------------------------------
D-0-----------------8------------------7-----------------10------------10--------------------------------------------------------------

Verse
E------------------------------------------------------------------------------------------------------------------------------------------
B------------------------------------------------------------------------------------------------------------------------------------------
G-----------5555----------5555----------5555----------5555-------------------------------------------------------------------------
D---0000--5555--0000--5555--7777--5555--7777--5555-------------------------------------------------------------------------
A---0000--3333--0000--3333--7777--3333--7777--3333-------------------------------------------------------------------------
D---0000----------0000----------7777----------7777---------------------------------------------------------------------------------
[ Tab from: http://www.guitartabs.cc/tabs/p/papa_roach/between_angels_and_insects_tab_ver_5.html ]
E------------------------------------------------------------------------------------------------------------------------------------------
B------------------------------------------------------------------------------------------------------------------------------------------
G-----------5555----------5555---------------------------------------------------------------------------------------------------------
D---0000--5555--0000--5555--7777--8888--3333--1111-------------------------------------------------------------------------
A---0000--3333--0000--3333--7777--8888--3333--1111-------------------------------------------------------------------------
D---0000----------0000----------7777--8888--3333--1111-------------------------------------------------------------------------

E------------------------------------------------------------------------------------------------------------------------------------------
B------------------------------------------------------------------------------------------------------------------------------------------
G----------7--7--7/12\10-------------7--7--7/12\10-------------7--7--7/12\10---------------------7--7--7/12\10----------------
D----------7--7--7/12\10-------------7--7--7/12\10-------------7--7--7/12\10---------------------7--7--7/12\10----------------
A--0000--5--5--5/10\8------8888--5--5--5/10\8-------7777--5--5--5/10\8-------10101010-5--5--5/10\8------------------
D--0000-----------------------8888-----------------------7777------------------------10101010------------------------------------
     Pm--|                             Pm--|                               Pm--|                               Pm--------|

Chorus
E------------------------------------------------------------------------------------------------------------------------------------------
B------------------------------------------------------------------------------------------------------------------------------------------
G-----------5555----------5555----------5555----------5555----12\-----------------------------------------------------------------
D---0000--5555--0000--5555--7777--5555--7777--5555----10\-----------------------------------------------------------------
A---0000--3333--0000--3333--7777--3333--7777--3333----10\-----------------------------------------------------------------
D---0000----------0000----------7777----------7777---------------------------------------------------------------------------------

Bridge
E-------------------------------
B-------------------------------
G-------------------------------
D--0--8--7--10----------------
A--0--8--7--10----------------
D--0--8--7--10----------------

::Ultimate Guitar Archive::
http://www.ultimate-guitar.com
Comments