Papa Roach - Between Angels And Insects Chords & Tabs

 

Between Angels And Insects Chords & Tabs

Papa Roach Chords & Tabs

Version: 4 Type: Tab 0 ratings
1 star 2 stars 3 stars 4 stars 5 stars
comments

Between Angels And Insects Tab

Tabs: Papa Roach 
Song Name: Between Angels and Insects  
Tuning: Drop D 
------------------------------------------------------------------------- 
Tabbed by Kevin (shuvit7604@aol.com) 


Intro 
------------------------------------------------------------------------- 
------------------------------------------------------------------------- 
------------------------------------------------------------------------- 
------------------------------------------------------------------------- 
---8---7---10---8---7H8-----8---7---10---8---7H8----8---7---10---8---7H8- 
-0---0---0----0---0-------8---8---8----8---8------7---7---7----7---7----- 

------------------------------------------------------------------------- 
------------------------------------------------------------------------- 
------------------------------------------------------------------------- 
------------------------------------------------------------------------- 
-----8----7----10----8----8P7-------------------------------------------- 
--10---10---10----10---10------------------------------------------------ 

------------------------------------------------------------------------- 
------------------------------------------------------------------------- 
--------55555---------55555---------55555---------55555------------------ 
-00000--55555--00000--55555--77777--55555--77777--55555------------------ 
-00000--33333--00000--33333--77777--33333--77777--33333------------------ 
-00000---------00000---------77777---------77777------------------------- 

------------------------------------------------------------------------- 
------------------------------------------------------------------------- 
--------55555---------55555---------------------------------------------- 
-00000--55555--00000--55555--77777--88888--33333--11111------------------ 
-00000--33333--00000--33333--77777--88888--33333--11111------------------ 
-00000---------00000---------77777--88888--33333--11111------------------ 

   
Verse 
[ Tab from: http://www.guitartabs.cc/tabs/p/papa_roach/between_angels_and_insects_tab_ver_4.html ]
------------------------------------------------------------------------- 
------------------------------------------------------------------------- 
------------------------------------------------------------------------- 
------------------------------------------------------------------------- 
--00000-7-/-8-/-10-10-10-10-10-\-8----88888-7-/-8-/-10-10-10-10-10-\-8--- 
--00000-------------------------------88888------------------------------ 
  |-PM-|                              |-PM-|  

------------------------------------------------------------------------- 
------------------------------------------------------------------------- 
------------------------------------------------------------------------- 
------------------------------------------------------------------------- 
-77777-7-/-8-/-10-10-10-10-10-\-8--1010101010---------------------------- 
-77777-----------------------------1010101010---0-8-10-0-8-10-0-8-10----- 
 |-PM-|                            |--PM-----| 


Chorus 
------------------------------------------------------------------------- 
------------------------------------------------------------------------- 
--------55555---------55555---------55555---------55555------------------ 
-00000--55555--00000--55555--77777--55555--77777--55555------------------ 
-00000--33333--00000--33333--77777--33333--77777--33333------------------ 
-00000---------00000---------77777---------77777------------------------- 

------------------------------------------------------------------------- 
------------------------------------------------------------------------- 
-7\-----55555---------55555---------55555---------55555------------------ 
-5\-0---55555--00000--55555--77777--55555--77777--55555------------------ 
-5\-0---33333--00000--33333--77777--33333--77777--33333------------------ 
----0----------00000---------77777---------77777------------------------- 

Bridge 
--------------------- 
--------------------- 
---------------------   then same as intro 
-0----7----8----10--- 
-0----7----8----10--- 
-0----7----8----10--- 

Comments