Papa Roach - Between Angels And Insects Chords & Tabs

 

Between Angels And Insects Chords & Tabs

Papa Roach Chords & Tabs

Version: 2 Type: Tab 1 rating
1 star 2 stars 3 stars 4 stars 5 stars
comments

Between Angels And Insects Tab

   
   band:Papa Roach
   song:Between Angels & Insects
   album:Infest
   any questions, E-mail me at satans_nutzi@hotmail.com
[ Tab from: http://www.guitartabs.cc/tabs/p/papa_roach/between_angels_and_insects_tab_ver_2.html ]
   Tuning:(low to high)d,a,d,g,b,e
   
    h-harmonic
    *-repeat last note
    r-repeat riff
    light,but heavy distortion
    pm-palm mute
    /-slide up
    \-slide down
  
   INTRO:
   |-----------------------------------------------------                                                      
   |-----------------------------------------------------
   |-----------------------------------------------------                                                 
   |-----------------------------------------------------                                              
   |------8--7--10--8--7--8--7-----8--7--10--8--7--8--7--                                            
   |-h12------------------------8------------------------                                                      
     -notes on lower line-let ring                                                    
   |-----------------------------------------------------|                                                            
   |-----------------------------------------------------|
   |-----------------------------------------------------|                                                          
   |-----------------------------------------------------|                                                            
   |-----8--7--10--8--7--8--7------8--7--10--8--7--8--7--|                                               
   |--7------------------------10------------------------|                                                       

   |-------------------------------------------------------------
   |-------------------------------------------------------------  
   |-------------------------------------------------------------
   |-0-*-*-*-*-10-*-*-0-*-*-*-*-10-*-*-7-*-*-*-*-10-*-*-7-*-*-*-*   
   |-0-*-*-*-*-10-*-*-0-*-*-*-*-10-*-*-7-*-*-*-*-10-*-*-7-*-*-*-*
   |-0-*-*-*-*-10-*-*-0-*-*-*-*-10-*-*-7-*-*-*-*-10-*-*-7-*-*-*-*

   |--------|r------------------------------------------------|
   |--------|r------------------------------------------------|
   |--------|r------------------------------------------------|
   |-10-*-*-|r-3-*-*-*-2-*------------------------------------|
   |-10-*-*-|r-3-*-*-*-2-*------------------------------------|
   |-10-*-*-|r-3-*-*-*-2-*------------------------------------|

   |--------------------------------------------------------------
   |---------------7/12\10-------------7/12\10------------7/12\10-
   |---------------x/xx\x--------------x/xx\x-------------x/xx\x--
   |---0-*-*-*-*---5/10\8--3-*-*-*-*---5/10\8--7-*-*-*-*--5/10\8--
   |---0-*-*-*-*-----------3-*-*-*-*-----------7-*-*-*-*----------
   |-pm0-*-*-*-*-----------3-*-*-*-*-----------7-*-*-*-*----------

   |--------------------------------------------------------r
   |--------------------------------------------------------r
   |--------------------------------------------------------r
   |-8-*-*-*-*-10-8-10--------------------------------------r
   |-8-*-*-*-*-10-8-10--------------------------------------r
   |-8-*-*-*-*-10-8-10--------------------------------------r



    its pretty much all there,
      if any questions my email is satans_nutzi@hotmail.com
     



Comments