Papa Roach - Between Angels And Insects Chords & Tabs

 

Between Angels And Insects Chords & Tabs

Papa Roach Chords & Tabs

Version: 1 Type: Tab 0 ratings
1 star 2 stars 3 stars 4 stars 5 stars
comments

Between Angels And Insects Tab

   
Papa Roach - Between Angels and insects

#$%When Printing put you're margens as low as they can go.(&^%

Drop D tuning
(low to High)D-A-D-G-B-E

	(/)-Slide down
	(\)-Slide up
	(x)-Just set finger on string
	
I'm 100% sure the notes are all right, but you'll have to work on 
the rythem of the song.

Intro

e-------------------------------------------------------------
b-------------------------------------------------------------
g-------------------------------------------------------------
d-------------------------------------------------------------
a-----8----7----10----8-----7-8-----8----7----10----8----7-8--
d--0-----0----0-----0-----0------8-----8----8-----8-----8-----

e--------------------------------------------------------------------
b--------------------------------------------------------------------Repeat
g--------------------------------------------------------------------Riff
d--------------------------------------------------------------------2 more	
a-----8----7----10----8-----7-8------8-----7-----10-----8------7-8---times.
d--7-----7----7-----7-----7------10-----10----10-----10-----10-------

Fill 1

	e---------------------------
	b---------------------------
	g---------------------------
	d---------------------------
	a---------------------------
	d--0------------------------

Rhy. Fig. 1

e---------------------------------------------------------------------------
b---------------------------------------------------------------------------
g---------------------------------------------------------------------------
d--0--0--0--0--12-10-10-10-10-10-10-10--0--0--0--0--12-10-10-10-10-10-10----
a--0--0--0--0--12-10-10-10-10-10-10-10--0--0--0--0--12-10-10-10-10-10-10----
d--0--0--0--0--12-10-10-10-10-10-10-10--0--0--0--0--12-10-10-10-10-10-10-0--

	
e---------------------------------------------------------------------------
b---------------------------------------------------------------------------
g---------------------------------------------------------------------------
d--7--7--7--7--7-10-10-10-10-10-10----7--7--7--7-7-7-10-10-10-10-10-10-10---
a--7--7--7--7--7-10-10-10-10-10-10----7--7--7--7-7-7-10-10-10-10-10-10-10---
d--7--7--7--7--7-10-10-10-10-10-10-7--7--7--7--7-7-7-10-10-10-10-10-10-10---

Riff C

e--------------------------------------------------------------------------
b--------------------------------------------------------------------------
g--------------------------------------------------------------------------
d--0--0--0--0--12-10-10-10-10-10-10-10--0--0--0--0--12-10-10-10-10-10-10---
a--0--0--0--0--12-10-10-10-10-10-10-10--0--0--0--0--12-10-10-10-10-10-10---
d--0--0--0--0--12-10-10-10-10-10-10-10--0--0--0--0--12-10-10-10-10-10-10-0-

	e--------------------------------------------------------------
	b--------------------------------------------------------------
	g--------------------------------------------------------------
	d--7--7--7--7-7-7-8-8-8-8-8-8----3--3--3--3-3-3-1-1-1-1-1-1-1--
	a--7--7--7--7-7-7-8-8-8-8-8-8----3--3--3--3-3-3-1-1-1-1-1-1-1--
	d--7--7--7--7-7-7-8-8-8-8-8-8-0--3--3--3--3-3-3-1-1-1-1-1-1-1--

Riff B (with variation)

e-----------------------------------------------------------------------------
b-----------------------------------------------------------------------------
g------------7-----10-/-12-12-12---10-------------------10-/-12-12-12---10----
d------------x------x-------x--x----x-0------------3-----x-------x--x----x--0-
a------------5---0--8-/-10-10-10----8-0------------3-----8-/-10-10-10----8--0-
d--0-0-0-0-0--------------------------0--3-3-3-3-3-3--0---------------------0-

e--------------------------------------------------------------------------------
b--------------------------------------------------------------------------------
g-----------------10-/-12-12-12---10---------------------------------------------
d-----------7------x-------x--x----x-------------------8-------------------------
a-----------7------8-/-10-10-10----8-------------------8--0---------------------- d-7-7-7-7-7-7---7----------------------7---8-8-8-8-8-8-8--0-8-10-10-8-10-10-8-10-

e-----------------------------------------------------------------------------
b-----------------------------------------------------------------------------
g------------7-----10-/-12-12-12---10-------------------10-/-12-12-12---10----
d------------x------x-------x--x----x-0------------3-----x-------x--x----x--0-
a------------5---0--8-/-10-10-10----8-0------------3-----8-/-10-10-10----8--0-
d--0-0-0-0-0--------------------------0--3-3-3-3-3-3--0---------------------0-

e------------------------------------------
b------------------------------------------
g------------------10-/-12-12-12---10------
d------------7------x-------x--x----x------   		
a------------7------8-/-10-10-10----8------    		
d--7-7-7-7-7-7---7----------------------7--

Fill 2

	e--------------------------------------
	b--------------------------------------
	g------------------10-/-12-12-12-------
	d------------8------x-------x--x---10--
	a------------8------8-/-10-10-10---10--
	d--8-8-8-8-8-8---0-----------------10--

Rhy. Fig. 1

e---------------------------------------------------------------------------
b---------------------------------------------------------------------------
g---------------------------------------------------------------------------
d--0--0--0--0--12-10-10-10-10-10-10-10--0--0--0--0--12-10-10-10-10-10-10----
a--0--0--0--0--12-10-10-10-10-10-10-10--0--0--0--0--12-10-10-10-10-10-10----
d--0--0--0--0--12-10-10-10-10-10-10-10--0--0--0--0--12-10-10-10-10-10-10-0--

e---------------------------------------------------------------------------
b---------------------------------------------------------------------------
g---------------------------------------------------------------------------
d--7--7--7--7--7-10-10-10-10-10-10----7--7--7--7-7-7-10-10-10-10-10-10-10---
a--7--7--7--7--7-10-10-10-10-10-10----7--7--7--7-7-7-10-10-10-10-10-10-10---
d--7--7--7--7--7-10-10-10-10-10-10-7--7--7--7--7-7-7-10-10-10-10-10-10-10---

Rhy. Fig. 2

e---------------------------------------------------------------------------
b---------------------------------------------------------------------------
g---------------------------------------------------------------------------
d------------------10-10-10-10-10-10-10--0--0--0--0--12-10-10-10-10-10-10---
a---------0--------10-10-10-10-10-10-10--0--0--0--0--12-10-10-10-10-10-10---
d--12--\--0--------10-10-10-10-10-10-10--0--0--0--0--12-10-10-10-10-10-10-0-
[ Tab from: http://www.guitartabs.cc/tabs/p/papa_roach/between_angels_and_insects_tab.html ]
e---------------------------------------------------------------------------
b---------------------------------------------------------------------------
g---------------------------------------------------------------------------
d--7--7--7--7-7-7-10-10-10-10-10-10----7--7--7---7-7-7-10-10-10-10-10-10-10-
a--7--7--7--7-7-7-10-10-10-10-10-10----7--7--7---7-7-7-10-10-10-10-10-10-10-
d--7--7--7--7-7-7-10-10-10-10-10-10----7--7--7---7-7-7-10-10-10-10-10-10-10-

Riff B (with variation)

e-----------------------------------------------------------------------------
b-----------------------------------------------------------------------------
g------------7-----10-/-12-12-12---10-------------------10-/-12-12-12---10----
d------------x------x-------x--x----x-0------------3-----x-------x--x----x--0-
a------------5---0--8-/-10-10-10----8-0------------3-----8-/-10-10-10----8--0-
d--0-0-0-0-0--------------------------0--3-3-3-3-3-3--0---------------------0-

e--------------------------------------------------------------------------------
b--------------------------------------------------------------------------------
g-----------------10-/-12-12-12---10---------------------------------------------
d-----------7------x-------x--x----x-------------------8-------------------------
a-----------7------8-/-10-10-10----8-------------------8--0---------------------- d-7-7-7-7-7-7---7----------------------7---8-8-8-8-8-8-8--0-8-10-10-8-10-10-8-10-

e-----------------------------------------------------------------------------
b-----------------------------------------------------------------------------
g------------7-----10-/-12-12-12---10-------------------10-/-12-12-12---10----
d------------x------x-------x--x----x-0------------3-----x-------x--x----x--0-
a------------5---0--8-/-10-10-10----8-0------------3-----8-/-10-10-10----8--0-
d--0-0-0-0-0--------------------------0--3-3-3-3-3-3--0---------------------0-

e------------------------------------------
b------------------------------------------
g------------------10-/-12-12-12---10------
d------------7------x-------x--x----x------   				a------------7------8-/-10-10-10----8------    				d--7-7-7-7-7-7---7----------------------7--

Fill 2

	e--------------------------------------
	b--------------------------------------
	g------------------10-/-12-12-12-------
	d------------8------x-------x--x---10--
	a------------8------8-/-10-10-10---10--
	d--8-8-8-8-8-8---0-----------------10--

Rhy. Fig. 1

e---------------------------------------------------------------------------
b---------------------------------------------------------------------------
g---------------------------------------------------------------------------
d--0--0--0--0--12-10-10-10-10-10-10-10--0--0--0--0--12-10-10-10-10-10-10----
a--0--0--0--0--12-10-10-10-10-10-10-10--0--0--0--0--12-10-10-10-10-10-10----
d--0--0--0--0--12-10-10-10-10-10-10-10--0--0--0--0--12-10-10-10-10-10-10-0--

e---------------------------------------------------------------------------
b---------------------------------------------------------------------------
g---------------------------------------------------------------------------
d--7--7--7--7--7-10-10-10-10-10-10----7--7--7--7-7-7-10-10-10-10-10-10-10---
a--7--7--7--7--7-10-10-10-10-10-10----7--7--7--7-7-7-10-10-10-10-10-10-10---
d--7--7--7--7--7-10-10-10-10-10-10-7--7--7--7--7-7-7-10-10-10-10-10-10-10---

Rhy. Fig. 2 variation

e---------------------------------------------------------------------------
b---------------------------------------------------------------------------
g---------------------------------------------------------------------------
d------------------10-10-10-10-10-10-10--0--0--0--0--12-10-10-10-10-10-10---
a---------0--------10-10-10-10-10-10-10--0--0--0--0--12-10-10-10-10-10-10---
d--12--\--0--------10-10-10-10-10-10-10--0--0--0--0--12-10-10-10-10-10-10-0-

e-----------------------------------------------------------------------------
b-----------------------------------------------------------------------------
g-----------------------------------------------------------------------------
d--7--7--7--7-7-7-10-10-10-10-10-10---7---7---7---7---7-10-10---10--10-10-10--        a--7--7--7--7-7-7-10-10-10-10-10-10---7---7---7---7---7-10-10---10--10-10-10--
d--7--7--7--7-7-7-10-10-10-10-10-10---7---7---7---7---7-10-10---10--10-10-10--

e---------------------------------------------------------------- 		b---------------------------------------------------------------- 		g--10---------------10-------------------------------------------
d---7----------------8------------------7-------------------10---
a---8----------------8------------------8--------------------8---
d---0----------------8------------------7-------------------10---

Riff A

e-------------------------------------------------------------
b-------------------------------------------------------------
g-------------------------------------------------------------
d-------------------------------------------------------------
a-----8----7----10----8-----7-8-----8----7----10----8----7-8--
d--0-----0----0-----0-----0------8-----8----8-----8-----8-----

e-------------------------------------------------------------------
b-------------------------------------------------------------------Repeat
g-------------------------------------------------------------------2 more
d-------------------------------------------------------------------times.
a-----8----7----10----8-----7-8------8-----7-----10-----8------7-8--
d--7-----7----7-----7-----7------10-----10----10-----10-----10------

Rhy. Fill 

	e---------------------------
	b---------------------------
	g---------------------------
	d--0------------------------
	a--0------------------------
	d--0------------------------

Rhy. Fig. 1

e--------------------------------------------------------------------------
b--------------------------------------------------------------------------
g--------------------------------------------------------------------------
d--0--0--0--0--12-10-10-10-10-10-10-10--0--0--0--0--12-10-10-10-10-10-10---
a--0--0--0--0--12-10-10-10-10-10-10-10--0--0--0--0--12-10-10-10-10-10-10---
d--0--0--0--0--12-10-10-10-10-10-10-10--0--0--0--0--12-10-10-10-10-10-10-0-

e------------------------------------------------------------------------
b------------------------------------------------------------------------Repeat
g------------------------------------------------------------------------2 more
d-7--7--7--7--7-10-10-10-10-10-10----7--7--7--7-7-7-10-10-10-10-10-10-10-times.
a-7--7--7--7--7-10-10-10-10-10-10----7--7--7--7-7-7-10-10-10-10-10-10-10-
d-7--7--7--7--7-10-10-10-10-10-10-7--7--7--7--7-7-7-10-10-10-10-10-10-10-

Rhy. Fill 

	e---------------------------
	b---------------------------
	g---------------------------
	d--0------------------------
	a--0------------------------
	d--0------------------------

That's it.
Comments