Papa Roach - Between Angels And Insects Chords & Tabs

 

Between Angels And Insects Chords & Tabs

Papa Roach Chords & Tabs

Version: 1 Type: Bass Tab 0 ratings
1 star 2 stars 3 stars 4 stars 5 stars
comments

Between Angels And Insects Bass Tab

From: "Pedro Lewin" 
To: =?iso-8859-1?Q?Agust=EDn_Luna_Rodr=EDguez?= 
Subject: given to fly guitarra
Date: Fri, 16 Nov 2001 18:41:01 -0600
MIME-Version: 1.0
Content-Type: multipart/alternative;
	boundary="----=_NextPart_000_000A_01C16ECE.597A7340"
X-Priority: 3
X-MSMail-Priority: Normal
X-Unsent: 1
X-MimeOLE: Produced By Microsoft MimeOLE V5.50.4522.1200

This is a multi-part message in MIME format.

------=_NextPart_000_000A_01C16ECE.597A7340
Content-Type: text/plain;
	charset="iso-8859-1"
Content-Transfer-Encoding: quoted-printable

RODRIGO DIAZ GUZMAN

GIVEN TO FLY GUITARRA

VERSE  2VECES

E---------------------7-----8--------------------------------------------=
--
B--------------8------------------------------------5-----3--------------=
--
G------------------------------------------------------------------------=
---
D------------------------------------------------------------------------=
---
A--0-9H10---10----10-----10---------0-7H9-9----7-----5----------------
E------------------------------------------------------------------------=
---


E--------------------7--------------------------------------5------------=
-----------5---------------------------------
B--------------8------------8------------------------5-----------5---5---=
7-------------5----5---7-------------------
G------------------------------------------------------------------------=
----------------------------------------------
D------------------------------------------------------------------------=
----------------------------------------------
A--0-9H10---10----10-----10----------0-7H9-9----7------5----5---5---5----=
-----5---5---5---5-------------------
E------------------------------------------------------------------------=
----------------------------------------------


BRIDGE
[ Tab from: http://www.guitartabs.cc/tabs/p/papa_roach/between_angels_and_insects_btab.html ]
E---7-7-7-7----8-8-8-8----|----------------------------------------------=
------------------------
B---8-8-8-8----8-8-8-8----|----------------------------------------------=
------------------------
G---0-0-0-0----0-0-0-0---------------|-----------------------------------=
-----------------------------------
D---0-0-0-0----0-0-0-0---------------|-----------------------------------=
----------------------------------
A---0-0-0-0----0-0-0-0---------------|-----------------------------------=
-----------------------------------
E---0-0-0-0----0-0-0-0-------------|-------------------------------------=
---------------------------------




------=_NextPart_000_000A_01C16ECE.597A7340
Content-Type: text/html;
	charset="iso-8859-1"
Content-Transfer-Encoding: quoted-printable








RODRIGO DIAZ =
GUZMAN
 
GIVEN TO FLY =
GUITARRA
 
VERSE  =
2VECES
 
E---------------------7-----8-----------------------------------=
-----------
B--------------8------------------------------------5-----3-----=
-----------
G---------------------------------------------------------------=
------------
D---------------------------------------------------------------=
------------
A--0-9H10---10----10-----10---------0-7H9-9----7-----5----------=
------
E---------------------------------------------------------------=
------------
 
 
E--------------------7--------------------------------------5---=
--------------------5---------------------------------
B--------------8------------8------------------------5----------=
-5---5---7-------------5----5---7-------------------
G---------------------------------------------------------------=
-------------------------------------------------------
D---------------------------------------------------------------=
-------------------------------------------------------
A--0-9H10---10----10-----10----------0-7H9-9----7------5----5---=
5---5---------5---5---5---5-------------------
E---------------------------------------------------------------=
-------------------------------------------------------
 
 
BRIDGE
 
E---7-7-7-7----8-8-8-8----|-------------------------------------=
---------------------------------
B---8-8-8-8----8-8-8-8----|-------------------------------------=
---------------------------------
G---0-0-0-0----0-0-0-0---------------|--------------------------=
--------------------------------------------
D---0-0-0-0----0-0-0-0---------------|--------------------------=
-------------------------------------------
A---0-0-0-0----0-0-0-0---------------|--------------------------=
--------------------------------------------
E---0-0-0-0----0-0-0-0-------------|----------------------------=
------------------------------------------
 
 
 

------=_NextPart_000_000A_01C16ECE.597A7340--
Comments