Papa Roach - Be Free Chords & Tabs

 

Be Free Chords & Tabs

Papa Roach Chords & Tabs

Version: 3 Type: Tab 0 ratings
1 star 2 stars 3 stars 4 stars 5 stars
comments

Be Free Tab

Band- Papa Roach
Song- Be Free

Tuning: Drop D

Verse

E||------------------------------------------------------------------------|
B||------------------------------------------------------------------------|
G||------------------------------------------------------------------------|
D||-0-0-----3-3--5-5---8-8----7-7------------------------------------------|
A||-0-0-----3-3--5-5---8-8----7-7---7^-------------------------------------|
D||-0-0-----3-3--5-5---8-8----7-7------------------------------------------|

Pre-Chorus

E||------------------------------------------------------------------------|
B||------------------------------------------------------------------------|
G||------------------------------------------------------------------------|
D||-0-0-x-x-x-3-3-x-5-5---8\\--8-8-8-8-8-8-8-8--7-7-7-7-7-7-7-7------------|
A||-0-0-x-x-x-3-3-x-5-5---8\\--8-8-8-8-8-8-8-8--7-7-7-7-7-7-7-7------------|
D||-0-0-x-x-x-3-3-x-5-5---8\\--8-8-8-8-8-8-8-8--7-7-7-7-7-7-7-7------------|

Chorus

E||------------------------------------------------------------------------|
B||------------------------------------------------------------------------|
G||------------------------------------------------------------------------|
D||-12-12-12-12-12-8-8-8-10-10-10-10-10-10-10-10---------------------------|
A||-12-12-12-12-12-8-8-8-10-10-10-10-10-10-10-10---------------------------|
D||-12-12-12-12-12-8-8-8-10-10-10-10-10-10-10-10---------------------------|

E||------------------------------------------------------------------------|
B||------------------------------------------------------------------------|
G||------------------------------------------------------------------------|
D||-12-12-12-12-12-15-15-15-10-10-10-10-10-10-10-10------------------------|
A||-12-12-12-12-12-15-15-15-10-10-10-10-10-10-10-10------------------------|
D||-12-12-12-12-12-15-15-15-10-10-10-10-10-10-10-10------------------------|
[ Tab from: http://www.guitartabs.cc/tabs/p/papa_roach/be_free_tab_ver_3.html ]
E||------------------------------------------------------------------------|
B||------------------------------------------------------------------------|
G||------------------------------------------------------------------------|
D||-12-12-12-12-12-8-8-8-10-10-10-10-10-10-10-10---------------------------|
A||-12-12-12-12-12-8-8-8-10-10-10-10-10-10-10-10---------------------------|
D||-12-12-12-12-12-8-8-8-10-10-10-10-10-10-10-10---------------------------|

E||------------------------------------------------------------------------|
B||------------------------------------------------------------------------|
G||------------------------------------------------------------------------|
D||-8-8-8-8-8-8-8-8-7-7-7-7-7-7-7-7----------------------------------------|
A||-8-8-8-8-8-8-8-8-7-7-7-7-7-7-7-7----------------------------------------|
D||-8-8-8-8-8-8-8-8-7-7-7-7-7-7-7-7----------------------------------------|

Bridge

E||------------------------------------------------------------------------|
B||------------------------------------------------------------------------|
G||------------------------------------------------------------------------|
D||-12-12-12-8-8-8-7~------------------------------------------------------|
A||-12-12-12-8-8-8-7~------------------------------------------------------|
D||-12-12-12-8-8-8-7~------------------------------------------------------|

Outro


E||------------------------------------------------------------------------|
B||------------------------------------------------------------------------|
G||------------------------------------------------------------------------|
D||-12-12-12-8-8-8-10~---12-12-12-8-8-8-7~---------------------------------|
A||-12-12-12-8-8-8-10~---12-12-12-8-8-8-7~---------------------------------|
D||-12-12-12-8-8-8-10~---12-12-12-8-8-8-7~---------------------------------|


song structure:

Verse (4x)
Pre-Chorus
Chorus
Verse (4x)
Pre-Chorus
Chorus (2x)
Bridge (4x)
>pick scratch, then
Chorus (2x)
Outro
Comments