Papa Roach - Be Free Chords & Tabs

 

Be Free Chords & Tabs

Papa Roach Chords & Tabs

Version: 1 Type: Bass Tab 0 ratings
1 star 2 stars 3 stars 4 stars 5 stars
comments

Be Free Bass Tab

   
Band- Papa Roach
Song- Be Free

Verses:
G-----------------------|
D-----------------------|
A--------------1-1--0-0-|
E------1-1-3-3----------|
B--3-3------------------|

Chorus Intro:
G----------------------------------------------|
D----------------------------------------------|
A--------------1-1-1-1-1-1-1-1-0-0-0-0-0-0-0-0-|
E------1-1-3-3---------------------------------|
B--3-3-----------------------------------------|
[ Tab from: http://www.guitartabs.cc/tabs/p/papa_roach/be_free_btab.html ]
Chorus:
G----------------------------------------------------------------------------|
D--0-0-0-0-0-----------------------0-0-0-0-0-3-3-3-----------------0-0-0-0-0-|
A------------0-0-0-3-3-3-3-3-3-3-3-----------------3-3-3-3-3-3-3-3-----------|
E----------------------------------------------------------------------------|
B----------------------------------------------------------------------------|

G-------------------------------------------------------|
D-------------------------------------------------------|
A-0-0-0-3-3-3-3-3-3-3-3-1-1-1-1-1-1-1-1-0-0-0-0-0-0-0-0-|
E-------------------------------------------------------|
B-------------------------------------------------------|

Bridge:
G----------|
D--0-0-----|
A------1-0-|
E----------|
B----------|

Ending:
G--------------------------------|
D--0-0-0-----------0-0-0---------|
A--------1-1-1-3---------1-1-1-0-|
E--------------------------------|
B--------------------------------|

Order:
Verses x 4
Chorus Intro x 1
Chorus x 1
Verses x 4
Chorus Intro x 1
Chorus x 2
Bridge x 4
--Pause--Drums & Guitar Only--
Chorus x 2
Ending x 1
Comments