Paolo Santos - Overjoyed Chords & Tabs

 

Overjoyed Chords & Tabs

Paolo Santos Chords & Tabs

Version: 1 Type: Tab 0 ratings
1 star 2 stars 3 stars 4 stars 5 stars
comments

Overjoyed Tab

   
I would like to dedicate this to all my txt mates and classmates lalo na sa mga taga SLU



Notes: This is one of my favorite song, so i try to tab it
       I'm sure now that this is 100% correct..so what r u waiting 4..get ur guitar now and enjoy...
       ive just edit this from nerostatics@yahoo.com..thanks
 
                                                 Overjoyed


Version of:      Paolo Santos


Transcribe by:  Walter Michael De la Cruz -  " The Twisted Illusions"


Chords Used:




         DM7  Bm7   Em  A7sus  A7  F#m   E   GM7  A   D/F#  C9   D5                        
E       -5-----2----0-----0----0----2----0----3--------0-----0---0-----
B       -7-----3----0-----3----2----2----0----3---3----3-----2---3-----
G       -6-----2----0-----0----0----2----1----4---3----2-----0---2-----
D       -7-----4----2-----2----2----4----2----4---3----0-----3---------
A       -5-----2----2---------------4----2----5--------0-----2---------
E       ------------0---------------2----0----3--------2---------------



 
INTRO: Plucking
	
E---------------------------------------------------------------------------
B---------------------------------------------------------------------------
G-2----2----2---2---2----2----2---2----2----2----2----2----2-2-----2--------
D---2---------0-------3---------0--------2----------0----------tap----------
A-3------3--2----2--1------1--2-----2--3------3--2------2--1-1-----2--------
E---------------------------------------------------------------------------

VERSE I: You may apply here either Plucking or strumming, but i suggest you to Combine it
[ Tab from: http://www.guitartabs.cc/tabs/p/paolo_santos/overjoyed_tab.html ]
DM7			Bm7		Em - A7susA7
Overtime I’ve been building my castle of love
DM7			  Bm7			Em - A7sus - A7
Just for two, though you never knew you we’re my reason
Bm7		F#m					
I’ve come much too far for you now to say 
Bm7 		E		A7susA7
That I’ve got to throw my castle away

VERSE II

Over dream I have picked out of perfect come true 
Though you never, knew when was of you I’ve been dreaming
The sandman has come from too far away
For you to say come back some other day

CHORUS I

                    GM7			A			
And though you don’t believe that they do	 
D/F#               Em      A7            C                     D5
They do come true for did dreams come to and all I’ll look at you
			Bm7                    F#m                
Can make it to with you would believe you too might be
Em             A7sus A7	       do Intro chords …
Overjoyed … Over love … Over me …

VERSE III
(Do verse chords)

Over heart I have painful return every stone
Just to find, I have found what I’ve search to discover
Well I’ve come much too far from me now to find
The love that I sought can never be mine

(Repeat chorus chordsI except last word)

       B7susB7
… Over me


CHORUS II

			
And though they I say improbable what do they know

For in romance also love needs is a chance
	          
And maybe with a chance you would find you too like I’m
    
Overjoyed… over love … over me …

BRIDGE: 
            
      EbM7       DM7
… Over you


For any views, comments, revisions, and suggestions please send me an E-mail @
Walterfdelacruz@yahoo.com. Your opinions are greatly welcome! 
Comments