Paolo Santos - Landslide Chords & Tabs

 

Landslide Chords & Tabs

Paolo Santos Chords & Tabs

Version: 1 Type: Tab 0 ratings
1 star 2 stars 3 stars 4 stars 5 stars
comments

Landslide Tab

Landslide - Paolo Santos
Tuning: Standard
Capo: 3rd fret

Intro

e-------------------------------------------------------------------|
B---------3-------3-------3-------3-------1-------1-------0-------0-|
G-------0-------0-------0-------0-------0-------0-------0-------0---|
D-----0-------0-------0-------0-------2-------2-------0-------0-----|  (2x)
A---3-------3-------2-------2-------0-------0-------2-------2-------|
E-------------------------------------------------------------------|

I

e-------------------------------------------------------------------|
B---------3-------3-------3-------3-------1-------1-------0-------0-|
G-------0-------0-------0-------0-------0-------0-------0-------0---|
D-----0-------0-------0-------0-------2-------2-------0-------0-----|
A---3-------3-------2-------2-------0-------0-------2-------2-------|
E-------------------------------------------------------------------|
          i took my love....took it down

e-------------------------------------------------------------------|
B---------3-------3-------3-------3-------1-------1-------0-------0-|
G-------0-------0-------0-------0-------0-------0-------0-------0---|
D-----0-------0-------0-------0-------2-------2-------0-------0-----|
A---3-------3-------2-------2-------0-------0-------2-------2-------|
E-------------------------------------------------------------------|
           climbed..mountain and...around                   and i

e-------------------------------------------------------------------|
B---------3-------3-------3-------3-------1-------1-------0-------0-|
G-------0-------0-------0-------0-------0-------0-------0-------0---|
D-----0-------0-------0-------0-------2-------2-------0-------0-----|
A---3-------3-------2-------2-------0-------0-------2-------2-------|
E-------------------------------------------------------------------|
    saw     my    reflection in the     snow.......hills        'till

e-------------------------------------------------------------------|
B---------3-------3-------3-------3-------1-------1-------0-------0-|
G-------0-------0-------0-------0-------0-------0-------0-------0---|
D-----0-------0-------0-------0-------2-------2-------0-------0-----|
A---3-------3-------2-------2-------0-------0-------2-------2-------|
E-------------------------------------------------------------------|
 ...landslide       brought   me   down

II

e-------------------------------------------------------------------|
B---------3-------3-------3-------3-------1-------1-------0-------0-|
G-------0-------0-------0-------0-------0-------0-------0-------0---|
D-----0-------0-------0-------0-------2-------2-------0-------0-----|
A---3-------3-------2-------2-------0-------0-------2-------2-------|
E-------------------------------------------------------------------|
        oh, mirror..sky, what is    love ?                      can

e-------------------------------------------------------------------|
B---------3-------3-------3-------3-------1-------1-------0-------0-|
G-------0-------0-------0-------0-------0-------0-------0-------0---|
D-----0-------0-------0-------0-------2-------2-------0-------0-----|
A---3-------3-------2-------2-------0-------0-------2-------2-------|
E-------------------------------------------------------------------|
  the child within my heart rise     above?                   can i

e-------------------------------------------------------------------|
B---------3-------3-------3-------3-------1-------1-------0-------0-|
G-------0-------0-------0-------0-------0-------0-------0-------0---|
D-----0-------0-------0-------0-------2-------2-------0-------0-----|
A---3-------3-------2-------2-------0-------0-------2-------2-------|
E-------------------------------------------------------------------|
    sail  through...changing        ocean         tide?     can i

e-------------------------------------------------------------------|
B---------3-------3-------3-------3-------1-------1-------0-------0-|
G-------0-------0-------0-------0-------0-------0-------0-------0---|
D-----0-------0-------0-------0-------2-------2-------0-------0-----|
A---3-------3-------2-------2-------0-------0-------2-------2-------|
E-------------------------------------------------------------------|
    handle  the   seasons           of      my     life?

Riff I

e-------------------------------------------------------------------|
B---------3-------3-------3-------3-------1-------1-------0-------0-|
G-------0-------0-------0-------0-------0-------0-------0-------0---|
D-----0-------0-------0-------0-------2-------2-------0-------0-----|
A---3-------3-------2-------2-------0-------0-------2-------2-------|
E-------------------------------------------------------------------|
        hmmm...

e---------------------------------------------------------0-------0-|
B-----------------3-------3-------3-------1-------1-----3-----3-----|
G-------0---0h2-0-------0-------0-------0-------0-----2-----2-------|
D-----0---0-----------0-------0-------2-------2-----0-----------0---|
A---3---------------2-------2-------0-------0-----------------------|
E-------------------------------------------------------------------|

III
[ Tab from: http://www.guitartabs.cc/tabs/p/paolo_santos/landslide_tab.html ]
e-------------------------------------------------------------------|
B---------3-------3-------3-------3-------3-------3-------3-------3-|
G-------0-------0-------0-------0-------0-------0-------0-------0---|
D-----0-------0-------0-------0-------2-------2-------2-------2-----|
A-------------------------------------------------------------------|
E---3-------3-------2-------2-------0-------0-------0-------0-------|
 ...i've    been   afraid   of     changing                 'cause i've
e---------------------------------------------------------0-------0-|
B---------3-------3-------3-------3-------1-------1-----3-------3---|
G-------0-------0-------0-------0-------0-------0-----2-------2-----|
D-----0-------0-------0-------0-------2-------2-----0-------0-------|
A---3-------3-------2-------2-------0-------0-----------------------|
E-------------------------------------------------------------------|
    built    my   life             around you                   and

e-------------------------------------------------------------------|
B---------3-------3-------3-------3-------3-------3-------3-------3-|
G-------0-------0-------0-------0-------0-------0-------0-------0---|
D-----0-------0-------0-------0-------2-------2-------2-------2-----|
A-------------------------------------------------------------------|
E---3-------3-------2-------2-------0-------0-------0-------0-------|
    time makes you  bolder     and children    get  older

e-------------------------------------------------------------------|
B---------3-------3-------3-------3-------1-------1-------1-------1-|
G-------0-------0-------0-------0-------0-------0-------0-------0---|
D-----0-------0-------0-------0-------2-------2-------2-------2-----|
A---3-------3-------2-------2-------0-------0-------0-------0-------|
E-------------------------------------------------------------------|
   i'm   getting   older           too

Riff II

e-------------------------0--------------------------------0--------|
B-----------------3-----------3-----------0h1p0-----------3p0-----0-|
G-------0---0h2-0-------0---0-----0-----0-------0-------0-------0---|
D-----0---0-----------0---------0-----2-----------2---0-------0-----|
A---3---------------2---------------0---------------2---------------|
E-------------------------------------------------------------------|

e-----------------------------0---------------------------0-------0-|
B-----------------3-------3-----3---------1-------1-----3-----3-----|
G-------0---0h2-0-------0---0-----------0-------0-----2-----2-------|
D-----0---0-----------0-----------0---2-------2-----0-----------0---|
A---3---------------2---------------0-------0-----------------------|
E-------------------------------------------------------------------|

Finale

e-------------------------------------------------------------------|
B---------3-------3-------3-------3-------1-------1-----------------|
G-------0-------0-------0-------0-------0-------0-------------------|
D-----0-------0-------0-------0-------2-------2---------------------|
A---3-------3-------2-------2-------0-------0-----------------------|
E-------------------------------------------------------------------|
 ...see    my    reflection in the snoooooooooooooow

e----------------------------0--------------------------------------|
B--------------------------3-----3----------------------------------|
G------------------------2-----2------------------------------------|
D----------------------0--------------------------------------------|
A-------------------------------------------------------------------|
E--------------------3----------------------------------------------|
    covered hills...                               ....will the
e-------------------------------------------------------------------|
B---------3-------3-------3-------3-------1-------1-------0-------0-|
G-------0-------0-------0-------0-------0-------0-------0-------0---|
D-----0-------0-------0-------0-------2-------2-------0-------0-----|
A---3-------3-------2-------2-------0-------0-------2-------2-------|
E-------------------------------------------------------------------|
    landslide       bring   it    down?                         will the

e--------------------------------------------------------0----------|
B---------3-------3-------3-------3---------1-------1----1----------|
G-------0-------0-------0-------0---------0-------0------0----------|
D-----0-------0-------0-------0---------2-------2--------2----------|
A---3-------3-------2-------2---------0-------0----------0----------|
E-------------------------------------------------------------------|
    landslide       bring  it down?


this is how the song goes...

Intro

I
  i took my love and i took it down
  climbed a mountain and i turned around
  and i saw my reflection in the snow-covered hills
  'till the landslide brought me down
II
  oh mirror in the sky, what is love?
  can a child within my heart rise above?
  can i sail through the changing ocean tide?
  can i handle the seasons of my life?

Riff I
  hmmm...

III
  well i've been afraid of changing
  'cause i've built my life around you
  and time makes you bolder
  and children get older
  i'm getting older too

Riff II

Repeat III

Repeat I

Finale
  if you see my reflection in the snow-covered hills
  will the landslide bring it down?
  will the landslide bring it down?

-------------------------------------------------------------------
Tabbed by: Josef Villanueva and Jeno Villanueva
For comments and suggestions, please email us.
(opep_vida_22@yahoo.com or jenofutbol@hotmail.com)
Comments