Paolo Santos - Iris Chords & Tabs

 

Iris Chords & Tabs

Paolo Santos Chords & Tabs

Version: 1 Type: Tab 0 ratings
1 star 2 stars 3 stars 4 stars 5 stars
comments

Iris Tab

   
Iris Tab by Santos Paolo, www.Ultimate-Guitar.Com

IRIS
Paolo Santos
transcribed by: Herson Juego, 17 yrs old (ekoy_14@yahoo.com)
July 4, 2004
8:43 pm
Los Baños, Laguna
standard tuning (ebgdae)

This is the complete tab of IRIS as performed by Paolo Santos. I am 1000% sure about
this tab.

Para ito sa lahat ng mga taga UP Los Baños at mga kababayan ko sa Naga City. Hello
 Mary Roxanne..miss na kita...para sa'yo talaga ito..i just want you to know who
i am..

e-mail me if you want to have a tab of any song..thnx  ^_^

INTRO

e|-------------------------------2----- -------------------------------2-----|
b|-------3-----------3---------------3- -------3-----------3---------------3-|
g|-----2-----2-----2-----2-----0---0--- -----2-----2-----2-2---2-----0---0---|
d|---0-----0-----0-----0-----0--------- ---0-----0-----0-----0-----0---------|
a|-2-----------0----------------------- -2-----------0-----------------------|
e|-------------------------3----------- -------------------------3-----------|


e|--------------------------------2----- ---------|
b|--------3-----------3-----------3---3- ------3--|
g|------2-2---2-----2-2---2-----0---0--- ----0----|
d|----0-----0-----0-----0-----0--------- -0-------|
a|--2-----------0----------------------- ---------|
e|--------------------------3----------- ---------|

e|--------------------------------------2--------|
b|----------3-----------3-----------3------------|
g|--------2-----2-----2-----2-----0---0----------|
d|------0-----0-----0-----0-----0----------------|
a|--0-2-----------0------------------------------|
e|----------------------------3------------------|

VERSE 1
"and i'd give up forever to touch you"
e|--------0------------------------------------------|
b|------3-----3-------3-----------3-----------3------|
g|----2-----2-------2-----2-----2-----2-----2-----2--|
d|--0-------------0-----0-----0-----0-----0-----0----|
a|---------------------------------------------------|
e|--------------0-----------3-----------3------------|

"coz i know that you feel me somehow"
e|--------------------------------2------------------|
b|--------3-----------3---------------3-------3------|
g|------2-----2-----2-----2-----0---0-------0-----0--|
d|----0-----0-----0-----0-----0-----------0-----0----|
a|--2-----------0------------------------------------|
e|--------------------------3-----------3------------|

"you're the closest to heaven that i'll ever be"
e|--------0------------------------------------------|
b|------3-----3-------3-----------3-----------3------|
g|----2-----2-------2-----2-----2-----2-----2-----2--|
d|--0-------------0-----0-----0-----0-----0-----0----|
a|---------------------------------------------------|
e|--------------0-----------3-----------3------------|

"and i don't want to go home right now"
e|---------------------------------------------------|
b|--------3-----------3-----------3-----------3------|
g|------2-----2-----2-----2-----0-----0-----0-----0--|
d|----0-----0-----0-----0-----0-----0-----0-----0----|
a|--2-----------0------------------------------------|
e|--------------------------3-----------3------------|

VERSE 2
"and all i can taste is this moment"
e|--------0------------------------------------------|
b|------3-----3-------------------3-----------3------|
g|----2-----2----------2--------2-2---2-----2-2---2--|
d|--0---------------0---------0-----0-----0-----0----|
a|---------------------------------------------------|
e|--------------0-----------3-----------3------------|

"and all i can breathe is your life"
e|---------------------------------------------------|
b|--------3-----------3-----------3-----------3------|
g|------2-----2-----2-----2-----0-----0-----0-----0--|
d|----0-----0-----0-----0-----0-----0-----0-----0----|
a|--2-----------0------------------------------------|
e|--------------------------3-----------3------------|
[ Tab from: http://www.guitartabs.cc/tabs/p/paolo_santos/iris_tab.html ]
"coz sooner or later it's over"
e|--------0------------------------------------------|
b|------3-----3-------3-----------3-----------3------|
g|----2-----2-------2-2---2-----2-2---2-----2-----2--|
d|--0-------------0-----0-----0-----0-----0-----0----|
a|---------------------------------------------------|
e|--------------0-----------3-----------3------------|

"i just don't want to miss you tonight"
e|---------------------------------------------------|
b|--------3-----------3-----------3-----------3------|
g|------2-----2-----2-----2-----0-----0-----0-----0--|
d|----0-----0-----0-----0-----0-----0-----0-----0----|
a|--2-----------0------------------------------------|
e|--------------------------3-----------3------------|

CHORUS
"and i don't want the world to see me"
e|---------------------------------------------------|
b|--------3-----------3-----------3-----------3------|
g|------2-----------2-----2-----0-----0-----0-----0--|
d|----0-----------0-----0-----0-----0-----0-----0----|
a|--2---------2-0------------------------------------|
e|--------------------------3-----------3------------|

"coz i don't think that they'd understand"
e|---------------------------------------------------|
b|--------3-----------3-----------3-----------3------|
g|------2-----2-----2-----2-----0-0---0-----0-0---0--|
d|----0-----0-----0-----0-----0-----0-----0-----0----|
a|--2-----------0------------------------------------|
e|--------------------------3-----------3------------|

"when everything's made to be broken"
e|---------------------------------------------------|
b|--------3-----------3-----------3-----------3------|
g|------2----2------2-----2-----0-----0-----0-----0--|
d|----0----0------0-----0-----0-----0-----0-----0----|
a|--2-----------0------------------------------------|
e|--------------------------3-----------3------------|

"i just want you to know who i am"
e|---------------------------------------------------|
b|--------3-----------3-----------3-----------3------|
g|------2----2------2-----2-----0-----0-----0-----0--|
d|----0----0------0-----0-----0-----0-----0-----0----|
a|--2-----------0------------------------------------|
e|--------------------------3-----------3------------|

INTERLUDE
(from here chords are strummed until last chorus)
e|-(0)-(0)-(0)-(0) -(0)-(0)-(0)-(0)-|
b|--3---3---3---3- --3---3---3---3--|
g|--2---2---0---0- --2---2---0---0--|
d|--0---0---0---0- --0---0---0---0--|
a|--2---0---x---x- --2---0---x---x--|
e|----------3---3- ----------3---3--|

VERSE 3
"and you can't fight the      "or the moment
tears that ain't coming" -->  of truth in your lies"
e|--0-----------              ---------------|
b|--3--3--3--3--              --3--3--3--3---|
g|--2--2--2--2--              --2--0--0--0---|
d|--0--0--0--0--              --0--0--0--0---|
a|-----x--x--x--              --2--0--x--x---|
e|-----0--3--3--              -----0--3--3---|

"when everything feels        "yeah you bleed just
like the movies"         -->  just to know you're alive"
e|--0-----------              --------2--2--|
b|--3--3--3--3--              --3--3--3--3--|
g|--2--2--2--2--              --2--2--0--0--|
d|--0--0--0--0--              --0--0--0--0--|
a|-----x--x--x--              --2--0--x--x--|
e|-----0--3--3--              -----0--3--3--|

CHORUS
e|--------------|
b|--3--3--3--3--|
g|--2--2--0--0--|    repeat pattern
d|--0--0--0--0--|        4 times
a|--2--0--x--x--|
e|--------3--3--|

(INTERLUDE)

Ad Lib
(fast up-down strokes with mutes)
e|------------------------|
b|--3--(x)--3-(x)--3---3--|
g|--2--(x)--2-(x)--0---0--|   repeat pattern pattern
d|--0--(x)--0-(x)--0---0--|       3 times
a|--2--(x)--0-(x)--x---x--|
e|------------(x)--3---3--|

(CHORUS, repeat last line/part two times)

OUTRO
e|----------------------------2---------------  ----------------|
b|--3----3----------3-------------3----3------  -3--0--------0--|
g|--2--------2----------2-------0----------0--  -2--0------0----|
d|--0--0---0------0---0-----0--------0---0----  ---------0------|
a|--2-----------0-----------------------------  -2--0-----------|
e|------------------------3---------3---------  -------3--------|

hello rin pala sa mga housemates ko, sila Enrico Quiñones at Aaron Racilis  ^_^

10:27 p.m. sa Baker Hall July 17, 2003
--the night I was with her though she never knew I was there beside her...i miss you
Comments