Paolo Santos - Falling Chords & Tabs

 

Falling Chords & Tabs

Paolo Santos Chords & Tabs

Version: 1 Type: Tab 0 ratings
1 star 2 stars 3 stars 4 stars 5 stars
comments

Falling Tab

   
++++++++++++++++++++++++++++++++++++++++++++++++++
+ Title: Falling                                 +
+ Artist: Keahiwai                               +
+ Transcribed By: Ricky Jay Lonceras             +
+ Date: August 23, 2004                          +
+ Tuning: Standard (Eadgbe) w/ capo on 5th fret  +
+ Taga bicol ini(+.<) '                          +
+ +++++++++++++++++++++++++++++++++++++++++++++++++

  This is one of my favorite song, and sna mgus2han
nyo to.
  This is not 100% pero the sound is the same.I want
to dedicate this song to jheannive and tezza joy.
  Di ko linagay ung add lib, pagkatpos ng 1st chorus
at ung sa last part ung s fade n, pero kung gus2 nyo
un mkuha mag email kau skin, hehe.   This my address
axl_since1969@yahoo.com

Chords are written in relation to capo.
G:    32X033
G/B:  X2X033
Am:   X02210
Am7:  X02010
D:    XXO232
Dsus: XX0233
Em:   022000

Intro:

Guitar 1
     G           G/B           Am7          D     Dsus
      U   U D     U   U D      U   U D      U   U D
e -----3-x-3-3-----3-x-3-3-----0-x-0-0------2-x-2-3--------|
b -----3-x-3-3-----3-x-3-3-----1-x-1-1------3-x-3-3--------|
g -----0-x-0-0-----0-x-0-0-----0-x-0-0------2-x-2-2--------|
d -----------------------------2-x-2-2----0----------------|
a ---------------2-----------0-----------------------------|
E ---3-----------------------------------------------------|

     G           B/B         Am7          D       Dsus
      U   U D     U   U D      U   U D      U   U D
e -----3-x-3-3-----3-x-3-3-----0-x-0-0------2-x-2-3--------|
b -----3-x-3-3-----3-x-3-3-----1-x-1-1------3-x-3-3--------|
g -----0-x-0-0-----0-x-0-0-----0-x-0-0------2-x-2-2--------|
d -----------------------------2-x-2-2----0----------------|
a ---------------2-----------0-----------------------------|
E ---3-----------------------------------------------------|

Guitar 1:
     G           G/B         Am7          D       Dsus
       U   U D     U   U D     U   U D      U   U D
e -----3-x-3-3-----3-x-3-3-----0-x-0-0------2-x-2-3--------|
b -----3-x-3-3-----3-x-3-3-----1-x-1-1------3-x-3-3--------|
g -----0-x-0-0-----0-x-0-0-----0-x-0-0------2-x-2-2--------|
d -----------------------------2-x-2-2----0----------------|
a ---------------2-----------0-----------------------------|
E ---3-----------------------------------------------------|

Guitar 2:

e ---------3-2---------2-0---------------------------------|
b -------3-----------3-------------------------------------|
g -----0-----------0---------------------------------------|
d ---------------------------------------------------------|
a ---------------------------------------------------------|
E ---3-----------------------------------------------------|

Guitar 1:
     G           G/B         Am7          D       Dsus
       U   U D     U   U D     U   U D      U   U D
e -----3-x-3-3-----3-x-3-3-----0-x-0-0------2-x-2-3--------|
b -----3-x-3-3-----3-x-3-3-----1-x-1-1------3-x-3-3--------|
g -----0-x-0-0-----0-x-0-0-----0-x-0-0------2-x-2-2--------|
d -----------------------------2-x-2-2----0----------------|
a ---------------2-----------0-----------------------------|
E ---3-----------------------------------------------------|

Guitar 2:

e ---------3-2---------2-0---------------------------------|
b -------3-----------3-------------------------------------|
g -----0-----------0---------------------------------------|
d ---------------------------------------------------------|
a ---------------------------------------------------------|
E ---3-----------------------------------------------------|


Verse 1:

Guitar 1 & guitar 2
     G           G/B         Am7          D       Dsus
       U   U D     U   U D     U   U D      U   U D
e -----3-x-3-3-----3-x-3-3-----0-x-0-0------2-x-2-3--------|
b -----3-x-3-3-----3-x-3-3-----1-x-1-1------3-x-3-3--------|
g -----0-x-0-0-----0-x-0-0-----0-x-0-0------2-x-2-2--------|
d -----------------------------2-x-2-2----0----------------|
a ---------------2-----------0-----------------------------|
E ---3-----------------------------------------------------|

  ++++++++++++++++++++++ (Repeat 8x) +++++++++++++++++++++++


Chorus:

Guitar 1:
     G           G/B         Am7          D       Dsus
       U   U D     U   U D     U   U D      U   U D
e -----3-x-3-3-----3-x-3-3-----0-x-0-0------2-x-2-3--------|
b -----3-x-3-3-----3-x-3-3-----1-x-1-1------3-x-3-3--------|
g -----0-x-0-0-----0-x-0-0-----0-x-0-0------2-x-2-2--------|
d -----------------------------2-x-2-2----0----------------|
a ---------------2-----------0-----------------------------|
E ---3-----------------------------------------------------|

Guitar 2:

e ---------3-2---------2-0---------------------------------|
b -------3-----------3-------------------------------------|
g -----0-----------0---------------------------------------|
d ---------------------------------------------------------|
a ---------------------------------------------------------|
E ---3-----------------------------------------------------|
___________________________________________________________
[ Tab from: http://www.guitartabs.cc/tabs/p/paolo_santos/falling_tab.html ]
Guitar 1:
     G           G/B         Am7          D       Dsus
       U   U D     U   U D     U   U D      U   U D
e -----3-x-3-3-----3-x-3-3-----0-x-0-0------2-x-2-3--------|
b -----3-x-3-3-----3-x-3-3-----1-x-1-1------3-x-3-3--------|
g -----0-x-0-0-----0-x-0-0-----0-x-0-0------2-x-2-2--------|
d -----------------------------2-x-2-2----0----------------|
a ---------------2-----------0-----------------------------|
E ---3-----------------------------------------------------|

Guitar 2: not play
___________________________________________________________
Guitar 1:
     G           G/B         Am7          D       Dsus
       U   U D     U   U D     U   U D      U   U D
e -----3-x-3-3-----3-x-3-3-----0-x-0-0------2-x-2-3--------|
b -----3-x-3-3-----3-x-3-3-----1-x-1-1------3-x-3-3--------|
g -----0-x-0-0-----0-x-0-0-----0-x-0-0------2-x-2-2--------|
d -----------------------------2-x-2-2----0----------------|
a ---------------2-----------0-----------------------------|
E ---3-----------------------------------------------------|

Guitar 2:

e ---------3-2---------2-0---------------------------------|
b -------3-----------3-------------------------------------|
g -----0-----------0---------------------------------------|
d ---------------------------------------------------------|
a ---------------------------------------------------------|
E ---3-----------------------------------------------------|
___________________________________________________________
Guitar 1:
     G           G/B         Am7          D       Dsus
       U   U D     U   U D     U   U D      U   U D
e -----3-x-3-3-----3-x-3-3-----0-x-0-0------2-x-2-3--------|
b -----3-x-3-3-----3-x-3-3-----1-x-1-1------3-x-3-3--------|
g -----0-x-0-0-----0-x-0-0-----0-x-0-0------2-x-2-2--------|
d -----------------------------2-x-2-2----0----------------|
a ---------------2-----------0-----------------------------|
E ---3-----------------------------------------------------|

Guitar 2: Not play
___________________________________________________________
Verse 2:
G-G/B-Am7-D-Dsus
Guitar 1 & guitar 2
     G           G/B         Am7          D       Dsus
       U   U D     U   U D     U   U D      U   U D
e -----3-x-3-3-----3-x-3-3-----0-x-0-0------2-x-2-3--------|
b -----3-x-3-3-----3-x-3-3-----1-x-1-1------3-x-3-3--------|
g -----0-x-0-0-----0-x-0-0-----0-x-0-0------2-x-2-2--------|
d -----------------------------2-x-2-2----0----------------|
a ---------------2-----------0-----------------------------|
E ---3-----------------------------------------------------|

  +++++++++++++++++++++++ (Repeat 8x) +++++++++++++++++++++

(Repeat Chorus)

Bridge:
Am - Em (3x)
Am - D - Dsus
        U   U D    U   U D      U   U  D       U   U  D
e ------0-x-0-0----0-x-0-0------0-x-0--0-------0-x-0--0----|
b ------1-x-1-1----1-x-1-1------0-x-0--0-------0-x-0--0----|
g ---2--2-x-2-2----2-x-2-2------0-x-0--0-------0-x-0--0----|
d ---2--2-x-2-2----2-x-2-2------2-x-2--2-------2-x-2--2----|
a ---0-----------0-------------(2)x(2)(2)-----(2)x(2)(2)---|
E ---------------------------0---------------0-------------|

        U   U D    U   U D      U   U  D       U   U  D
e ------0-x-0-0----0-x-0-0------0-x-0--0-------0-x-0--0----|
b ------1-x-1-1----1-x-1-1------0-x-0--0-------0-x-0--0----|
g ------2-x-2-2----2-x-2-2------0-x-0--0-------0-x-0--0----|
d ------2-x-2-2----2-x-2-2------2-x-2--2-------2-x-2--2----|
a ---0-----------0-------------(2)x(2)(2)-----(2)x(2)(2)---|
E ---------------------------0---------------0-------------|

        U   U      U   U D      U   U  D       U   U  D
e ------0-x-0-0----0-x-0-0------0-x-0--0-------0-x-0--0----|
b ------1-x-1-1----1-x-1-1------0-x-0--0-------0-x-0--0----|
g ------2-x-2-2----2-x-2-2------0-x-0--0-------0-x-0--0----|
d ------2-x-2-2----2-x-2-2------2-x-2--2-------2-x-2--2----|
a ---0-----------0-------------(2)x(2)(2)-----(2)x(2)(2)---|
E ---------------------------0---------------0-------------|

        U   U D    U   U D   D U D U D U D D
e ------0-x-0-0----0-x-0-0---2-2-2-2-3-3-3-3---------------|
b ------1-x-1-1----1-x-1-1---3-3-3-3-3-3-3-3---------------|
g ------2-x-2-2----2-x-2-2---2-2-2-2-2-2-2-2---------------|
d ------2-x-2-2----2-x-2-2---0-0-0-0-0-0-0-0---------------|
a ---0-----------0-----------------------------------------|
E ---------------------------------------------------------|
  _________________________________________________________

(Repeat Chorus)

Fade:

Guitar 1
     G           G/B           Am7          D     Dsus
      U   U D     U   U D      U   U D      U   U D
e -----3-x-3-3-----3-x-3-3-----0-x-0-0------2-x-2-3--------|
b -----3-x-3-3-----3-x-3-3-----1-x-1-1------3-x-3-3--------|
g -----0-x-0-0-----0-x-0-0-----0-x-0-0------2-x-2-2--------|
d -----------------------------2-x-2-2----0----------------|
a ---------------2-----------0-----------------------------|
E ---3-----------------------------------------------------|

Guitar 2:
AdD lid

___________________________________________________________

Illustration:
x = tap
U = up stroke
D = down stroke


Comments? Question? is free ok?
This is my address
axl_since1969@yahoo.com

That all?
Thank You (".)?
+++++++++++++++++++++++++++++++++++++++++++++++++++++++++++++
Comments