Paolo Santos - 6 8 12 Chords & Tabs

 

6 8 12 Chords & Tabs

Paolo Santos Chords & Tabs

Version: 1 Type: Tab 0 ratings
1 star 2 stars 3 stars 4 stars 5 stars
comments

6 8 12 Tab

6,8,12
Paolo Santos

johnsantos_17@yahoo.com

Standard tuning: (EADGBE)

Verse:

E----2--2--0-0-
B-0--2--3--0-0-
G-2--2--2--2-1-
D-2--2--4--2-2-
A-0--4--2--2-2-
E----2-----0-0-

Pre-Chorus:

E-4--2-2--2--0-0--
B-5--2-2--3--0-0--
G-4--2-2--2--2-1--
D-6--2-2--4--2-2--
A-4--4-2--2--2-2--
E----2-------0-0--

Chorus:
It's been 6 months, 8 days, 12 hours...
[ Tab from: http://www.guitartabs.cc/tabs/p/paolo_santos/6_8_12_tab.html ]
E-0--4--2--0--|-0--4--2-2-|-
B-0--5--3--0--|-0--5--2-2-|-
G-2--4--2--1--|-2--4--2-2-|-
D-2--6--4--2--|-2--6--2-2-|-
A-0--4--2--2--|-0--4--4-2-|-
E----------0--|-------2-0-|-

E-2---2-4-2---2--0--
B-3---3-5-2---3--0--
G-2---2-4-2---2--1--
D-4---4-6-2---4--2--
A-2---2-4-4---2--2--
E---------2------0--

Bridge:

E--2--4--2--2-2--|--2--4--2--0-0-
B--2--5--3--2-2--|--2--5--3--0-0-
G--2--4--2--2-2--|--2--4--2--2-1-
D--0--6--4--2-4--|--0--6--4--2-2-
A-----4--2--4-4--|-----4--2--2-2-
E-----------2-2--|-----------0-0-

=====()w&_17=====
Comments