Pantera - Yesterday Don't Mean Sh*t Chords & Tabs

 

Yesterday Don't Mean Sh*t Chords & Tabs

Pantera Chords & Tabs

Version: 1 Type: Tab 1 rating
1 star 2 stars 3 stars 4 stars 5 stars
comments

Yesterday Don't Mean Sh*t Tab

Here you go Pantera's Yesterday don't mean shit off Reinventing the steel
Whole step down tuning

Intro:
D||------------||---------------------------------|
A||------------||---------------------------------|
F||------------||*--------------------------------|
C||------------||*--------------------------------| 
G||------------||---------------------------------|
D||--20\-------||---0--0-0-6-0-3-0-0--0-0-6-0-3-0-|
                                5x Verse1:
--------------------------------||------------------------------|
--------------------------------||------------------------------|
-------------------------------*||*--2--x-x-2--x-x-2--x-x-2--3--|
-------------------------------*||*--2--x-x-2--x-x-2--x-x-2--3--|
--------------------------------||---0------0------0------0--1--|
--0--0-0-6-0-3-0-0--0-0-1-0-4---||------------------------------|

--------------------------------|--------------------------------|
--------------------------------|--------------------------------|
----x-x-3--x-x-3--x-x-3---------|--------------------------------|
----x-x-3--x-x-3--x-x-3---------|--------------------------------|
--------1------1------1---------|--------------------------------|
---------------------------3~---|--0--0-0-6-0-3-0-0--0-0-6-0-3-0-|
                                3x
--------------------------------||--------------------------------|
--------------------------------||--------------------------------|
-------------------------------*||--------------------------------|
-------------------------------*||--------------------------------|
--------------------------------||--------------------------------|
--0--0-0-6-0-3-0-0--0-0-1-0-4---||--0--0-0-6-0-3-0-0--0-0-6-0-3-0-|
Chorus:
------------------------||---------------------------|
------------------------||---------------------------|
---------------5--7--9--||*--7--9--------------7--9--|
---------------5--7--9--||*--7--9-----5--7-----7--9--|
---------------3--5--7--||---5--7-----5--7-----5--7--|
--11\-------0-----------||---------0--3--5--0--------|
                            2x
----------------------------||--------------------------|
----------------------------||--------------------------|
--------------10--10--9----*||--7--9--------------7--9--|
-----7--9-----10--10--9----*||--7--9-----5--7-----7--9--|
-----7--9-----8---8---7-----||--5--7-----5--7-----5--7--|
--0--5--7--0----------------||--------0--3--5--0--------|

-------------------------|--------------------------|---------------------|
-------------------------|--------------------------|---------------------|
--------------7--7--6----|--5--6--------------5--6--|-------------7--7--6-|
-----7--9-----7--7--6----|--5--6-----3--4-----5--6--|----3--4-----7--7--6-|
-----7--9-----5--5--4----|--3--4-----3--4-----3--4--|----3--4-----5--5--4-|
--0--5--7--0-------------|--------0--1--2--0--------|-0--1--2--0----------|


-------------------------|-----------------------|-----------------------|
-------------------------|-----------------------|-----------------------|
--5--6--------------5--6-|--------------5--7--9--|-7--9-------------7--9-|
--5--6-----3--4-----5--6-|-----3--4-----5--7--9--|-7--9-----5--7----7--9-|
--3--4-----3--4-----3--4-|-----3--4-----3--5--7--|-5--7-----5--7----5--7-|
--------0--1--2--0-------|--0--1--2--0-----------|-------0--3--5--0------|

---------------------------|----------------------------------|----------|
---------------------------|----------------------------------|----------|
--------------10--10--9----|--7--9--------------7----9\-------|----------|
-----7--9-----10--10--9----|--7--9-----5--7-----7----9\-------|----------|
-----7--9-----8---8---7----|--5--7-----5--7-----5----7\-------|----------|
--0--5--7--0---------------|--------0--3--5--0----------------|----------|
                                                                   3x
|---------------------------------|--------------------------------||
|---------------------------------|--------------------------------||
|*--------------------------------|-------------------------------*||
|*--------------------------------|-------------------------------*||
|---------------------------------|--------------------------------||
|---0--0-0-6-0-3-0-0--0-0-6-0-3-0-|--0--0-0-6-0-3-0-0--0-0-1-0-4---||
Verse2:
------------------------------|--------------------------------|
------------------------------|--------------------------------|
*--2--x-x-2--x-x-2--x-x-2--3--|----x-x-3--x-x-3--x-x-3---------|
*--2--x-x-2--x-x-2--x-x-2--3--|----x-x-3--x-x-3--x-x-3---------|
---0------0------0------0--1--|--------1------1------1---------|
------------------------------|---------------------------3~---|
                                                                 3x
--------------------------------|--------------------------------||
--------------------------------|--------------------------------||
--------------------------------|-------------------------------*||
--------------------------------|-------------------------------*||
--------------------------------|--------------------------------||
--0--0-0-6-0-3-0-0--0-0-6-0-3-0-|--0--0-0-6-0-3-0-0--0-0-1-0-4---||
                                 Chorus:
--------------------------------|------------------------|
--------------------------------|------------------------|
--------------------------------|---------------5--7--9--|
--------------------------------|---------------5--7--9--|
--------------------------------|---------------3--5--7--|
--0--0-0-6-0-3-0-0--0-0-6-0-3-0-|--11\-------0-----------|
                                                         2x
|---------------------------|----------------------------||
|---------------------------|----------------------------||
|*--7--9--------------7--9--|--------------10--10--9----*||
|*--7--9-----5--7-----7--9--|-----7--9-----10--10--9----*||
|---5--7-----5--7-----5--7--|-----7--9-----8---8---7-----||
|---------0--3--5--0--------|--0--5--7--0----------------||

-------------------------|----------------------|-------------------------|
-------------------------|----------------------|-------------------------|
-7--9--------------7--9--|--------------7--7--6-|--5--6--------------5--6-|
-7--9-----5--7-----7--9--|-----7--9-----7--7--6-|--5--6-----3--4-----5--6-|
-5--7-----5--7-----5--7--|-----7--9-----5--5--4-|--3--4-----3--4-----3--4-|
-------0--3--5--0--------|--0--5--7--0----------|--------0--1--2--0-------|

------------------------|--------------------------|----------------------|
------------------------|--------------------------|----------------------|
-------------7--7--6----|--5--6--------------5--6--|--------------5--7--9-|
----3--4-----7--7--6----|--5--6-----3--4-----5--6--|-----3--4-----5--7--9-|
----3--4-----5--5--4----|--3--4-----3--4-----3--4--|-----3--4-----3--5--7-|
-0--1--2--0-------------|--------0--1--2--0--------|--0--1--2--0----------|

--------------------------|---------------------------|
--------------------------|---------------------------|
--7--9--------------7--9--|--------------10--10--9----|
--7--9-----5--7-----7--9--|-----7--9-----10--10--9----|
--5--7-----5--7-----5--7--|-----7--9-----8---8---7----|
--------0--3--5--0--------|--0--5--7--0---------------|

----------------------------------|-------------------|
----------------------------------|-------------------|
--7--9--------------7----9\-------|--9\---------------|
--7--9-----5--7-----7----9\-------|--9\---------------|
--5--7-----5--7-----5----7\-------|--7\---------------|
--------0--3--5--0----------------|-------------------|
Interlude:
--------------------------|-------------------------|
--------------------------|-------------------------|
--------------------------|-------------------------|
--------------------------|-------------------------|
--------------------------|-------------------------|
--0/-------12--0-0-0--11--|--10------9----0--8-8-0--|

---------------------------------|----------|----------------|
---------------------------------|----------|----------------|
----------------5----------------|----------|----------------|
----------------5----------------|----------|----------------|
----------------0----------------|----------|--3r-------3----|
--7-7-0--6-6-0-------------------|----------|----------------|

--------------------------|-------------------------|
--------------------------|-------------------------|
--------------------------|-------------------------|
--------------------------|-------------------------|
--------------------------|-------------------------|
--0/-------12--0-0-0--11--|--10------9----0--8-8-0--|

---------------------------------|----------|
---------------------------------|----------|
----------------5----------------|----------|
----------------5----------------|----------|
----------------0----------------|----------|
--7-7-0--6-6-0-------------------|----------|

--------------------------------------|--------------------------|
--------------------------------------|--------------------------|
--------------------------------------|--------------------------|
--------------------------------------|--------------------------|
--7--7--7--7--6--6--6--5--5--4--4--3--|--------------------------|
--5--5--5--5--4--4--4--3--3--2--2--1--|--0/-------12--0-0-0--11--|
[ Tab from: http://www.guitartabs.cc/tabs/p/pantera/yesterday_dont_mean_sht_tab.html ]
-------------------------|---------------------------------|-------|
-------------------------|---------------------------------|-------|
-------------------------|----------------5----------------|-------|
-------------------------|----------------5----------------|-------|
-------------------------|----------------0----------------|-------|
--10------9----0--8-8-0--|--7-7-0--6-6-0-------------------|----0--|

-----------------------------|--------------------------|
-----------------------------|--------------------------|
-----------------------------|--------------------------|
-----------------------------|--------------------------|
--5/-7--7--7--7/-10--10--10--|--------------------------|
--3/-5--5--5--5/-8---8---8---|--0/-------12--0-0-0--11--|

-------------------------|---------------------------------|
-------------------------|---------------------------------|
-------------------------|----------------5----------------|
-------------------------|----------------5----------------|
-------------------------|----------------0----------------|
--10------9----0--8-8-0--|--7-7-0--6-6-0-------------------|

---------------------||-------------------------|-----------------------|
---------------------||-------------------------|-----------------------|
---------------------||*------------------------|-----------------------|
---------------------||*------------------------|-----------------------|
---------------------||-------------------------|-----------------------|
-3b---3b---3r---3----||--0/------12--0-0-0--11--|--10------9---0--8-8-0-|

---------------||-----------------------------|-------------------------|
---------------||-----------------------------|-------------------------|
--------------*||-----------------------------|-------------------------|
--------------*||-----------------------------|-------------------------|
---------------||--10----------9---8-------7--|-------------------------|
--7-7-0--7/----||--12--0-0-0-0-11--10------9--|---0--8-8-0--7-7-0--7/---|

---------------------------------------------|----------------------------|
---------------------------------------------|----------------------------|
---------------------------------------------|----------------------------|
---------------------------------------------|----------------------------|
-10-10-10-10-9--9--9--9--8--8--8--8--7-7-7-7-|-6-6-6-6-5-5-5-5-4-4-4-4-3\-|
-12-12-12-12-11-11-11-11-10-10-10-10-9-9-9-9-|-8-8-8-8-7-7-7-7-6-6-6-6-5\-|

And then the Solo:
-------------------|--24b--------------|--24b--24b--24b---24b---24b--24b--|
-------------------|-------------------|----------------------------------|
-------------------|-------------------|----------------------------------|
-------------------|-------------------|----------------------------------|
-------------------|-------------------|----------------------------------|
--2~~~~~~----------|-------------------|----------------------------------|

------------------|---------------------|-------------------------------|
------------------|---------------------|------9--11--11r11-11p9-11--9--|
------------------|---------------------|------9--11--11r11-11p9-11--9--|
------------------|---------------------|-------------------------------|
------------------|---------------------|-------------------------------|
------------------|------7--8--9~-------|-------------------------------|

------------------------------|----9--14p9----9-12p9---------9------|
--11-11-11p9-----9~-----12b---|------------14--------12p9-14---12p9-|
--11r11-11p9-----9~-----------|-------------------------------------|
-------------11---------------|-------------------------------------|
------------------------------|-------------------------------------|
------------------------------|-------------------------------------|
                                  
--9------------------------------16----|-------------------------------|
----12p9-9-12p9-9----------------------|-----------------12-11----11~--|
---------------------------------------|-------------------------------|
---------------------------------------|-------------------------------|
---------------------------------------|-------------------------------|
---------------------------------------|-------------------------------|

----14--17p14-17-17p14--18p14-18p14----14-|
------------------------------------18----|
------------------------------------------|
------------------------------------------|
------------------------------------------|
------------------------------------------|


--19p14----19----14-20p14-20-20----14-21p14-21--|
--------19----19----------------20--------------|
------------------------------------------------|
------------------------------------------------|
------------------------------------------------|
------------------------------------------------|

--14-21p14--22p17----16r16----16----------------|
------------------19-------17----17-14-17-------|
------------------------------------------14-14-|
------------------------------------------------|
------------------------------------------------|
------------------------------------------------|

------------------------------------|----------------------------|
--17p12----12-------12--------12b---|----------9-12p9--12p9-9----|
--------14----11p14----11~----------|-------------------------12p|
------------------------------------|----------------------------|
------------------------------------|----------------------------|
------------------------------------|----------------------------|

------------------------------------|------------------|---------------|
------------------------------------|------------------|--11b----------|
--11-9-11-11-9-11-11--9h11-9--------|------------------|--11-----------|
------------------------------11~---|------------------|---------------|
------------------------------------|------------------|---------------|
------------------------------------|------------------|---------------|
                                           Chorus:
--21\---------------|--24~---------------|---------------------|
--------------------|--------------------|---------------------|
--------------------|--------------------|---------------------|
--------------------|--------------------|----------5----7--9--|
--------------------|--------------------|----------5----7--9--|
--------------------|--------------------|----------3----5--7--|
                                                         2x
|---------------------------|----------------------------||
|---------------------------|----------------------------||
|*--7--9--------------7--9--|--------------10--10--9----*||
|*--7--9-----5--7-----7--9--|-----7--9-----10--10--9----*||
|---5--7-----5--7-----5--7--|-----7--9-----8---8---7-----||
|---------0--3--5--0--------|--0--5--7--0----------------||

--------------------------|-------------------------|----------------------|
--------------------------|-------------------------|----------------------|
--7--9--------------7--9--|--------------7--7--6----|--5--6-----------5--6-|
--7--9-----5--7-----7--9--|-----7--9-----7--7--6----|--5--6---3--4----5--6-|
--5--7-----5--7-----5--7--|-----7--9-----5--5--4----|--3--4---3--4--- 3--4-|
--------0--3--5--0--------|--0--5--7--0-------------|-------0-1--2--0------|

-------------------------|--------------------------|----------------------|
-------------------------|--------------------------|----------------------|
--------------7--7--6----|--5--6--------------5--6--|--------------5--7--9-|
-----3--4-----7--7--6----|--5--6-----3--4-----5--6--|-----3--4-----5--7--9-|
-----3--4-----5--5--4----|--3--4-----3--4-----3--4--|-----3--4-----3--5--7-|
--0--1--2--0-------------|--------0--1--2--0--------|--0--1--2--0----------|

--------------------------|---------------------------|
--------------------------|---------------------------|
--7--9--------------7--9--|--------------10--10--9----|
--7--9-----5--7-----7--9--|-----7--9-----10--10--9----|
--5--7-----5--7-----5--7--|-----7--9-----8---8---7----|
--------0--3--5--0--------|--0--5--7--0---------------|

----------------------------------|----------|
----------------------------------|----------|
--7--9--------------7----9\-------|----------|
--7--9-----5--7-----7----9\-------|----------|
--5--7-----5--7-----5----7\-------|----------|
--------0--3--5--0----------------|----------|
                                                                   3x
|---------------------------------|--------------------------------||
|---------------------------------|--------------------------------||
|*--------------------------------|-------------------------------*||
|*--------------------------------|-------------------------------*||
|---------------------------------|--------------------------------||
|---0--0-0-6-0-3-0-0--0-0-6-0-3-0-|--0--0-0-6-0-3-0-0--0-0-1-0-4---||
Outro:
------------------------|-------------------------|----------------------|
------------------------|-------------------------|----------------------|
------------------------|-------------------------|----------------------|
------------------------|-------------------------|----------------------|
------------------------|-------------------------|----------------------|
---12/15-----14/11------|----10/13------9/12------|---0/0-----8/11--7/10-|

-----------------------|--------------------------|--------------------||
-----------------------|--------------------------|--------------------||
-----------------------|--------------------------|--------------------||
-----------------------|--------------------------|--------------------||
-----------------------|--------------------------|--------------------||
--6/9----5/8----3/6----|--3/6----1/4---1/4---1/4--|--1/4---1/4---0\3---||
Comments