Pantera - War Nerve Chords & Tabs

 

War Nerve Chords & Tabs

Pantera Chords & Tabs

Version: 1 Type: Tab 0 ratings
1 star 2 stars 3 stars 4 stars 5 stars
comments

War Nerve Tab

   

War Nerve
Pantera
Tabbed by TooTH-PiCK (tooth-pick@usa.net)

. = Palm Mute
x = Mute
* = Whammy Bar stuff
h = Hammer On
p = Pull Off
b = Bend
r = Release (bend)

***TUNE DOWN 1 1/2 STEPS***

                              |Repete this-------------------------|
|------------|---------------||-------------------|----------------||
|------------|---------------||-------------------|----------------||
|------------|---------------||-------------------|----------------||
|-/7b---7--5-|-2-----8--7--5-||--2-----/7b---7--5-|-2-----8--7--5--||
|--x----x--x-|-2-----x--x--x-||--2------x----x--x-|-2-----x--x--x--||
|-/5b---5--3-|-0-----6--5--3-||--0-----/5b---5--3-|-0-----6--5--3--||

|-----------|--------|------|----------------------------|
|-----------|--------|------|----------------------------|
|-----------|--------|------|----------------------------|
|-2----3--3-|--------|-7--3-|-2-2-2-2--2-2-2-2-2------5b-|
|-2----3--3-|-10--10-|-7--3-|-2-2-2-2--2-2-2-2-2------x--|
|-0----1--1-|--8---7-|-5--1-|-0-0-0-0--0-0-0-0-0---x--3b-|
                              ..................

|----------------------------|
|----------------------------|
|----------------------------|
|-2-2-2-2--2-2-2-2-2------7b-|
|-2-2-2-2--2-2-2-2-2------x--|
|-0-0-0-0--0-0-0-0-0---x--5b-|
  ..................

|----------------------------|
|----------------------------|
|----------------------------|
|-2-2-2-2--2-2-2-2-2------5b-|
|-2-2-2-2--2-2-2-2-2------x--|
|-0-0-0-0--0-0-0-0-0---x--3b-|
  ..................

|----------------------------|
|----------------------------|
|----------------------------|
|-2-2-2-2--2-2-2-2-2------7b-|
|-2-2-2-2--2-2-2-2-2------x--|
|-0-0-0-0--0-0-0-0-0---x--5b-|
  ..................

|----------------------------|
|----------------------------|
|----------------------------|
|-2-2-2-2--2-2-2-2-2------8b-|
|-2-2-2-2--2-2-2-2-2------x--|
|-0-0-0-0--0-0-0-0-0---x--6b-|
  ..................

Play this 4 times
||-----------------------------||
||-----------------------------||
||-----------------------------||
||-2-2-2-2--2-2-2-2-2-----/13b-||
||-2-2-2-2--2-2-2-2-2------x---||
||-0-0-0-0--0-0-0-0-0---x-/11b-||
   ..................

|--------------------|
|--------------------|
|--------------------|
|-2-2-2-2--2-2-2-2-2-|
|-2-2-2-2--2-2-2-2-2-|
|-0-0-0-0--0-0-0-0-0-|
  ..................

Play this 3 times
||----------------------------||
||----------------------------||
||----------------------------||
||-2-2-2-2--2-2-2-2-2------3b-||
||-2-2-2-2--2-2-2-2-2------x--||
||-0-0-0-0--0-0-0-0-0---x--1b-||
   ..................

|-----------------------------|
|-----------------------------|
|-----------------------------|
|-2-2-2-2--2-2-2-2-2-----/13b-|
|-2-2-2-2--2-2-2-2-2------x---|
|-0-0-0-0--0-0-0-0-0---x-/11b-|
  ..................

Verse: Play this a bunch
|-----------------------------|
|-----------------------------|
|-----------------------------|
|-2-2-2-2--2-2-2-2-2-----/13b-|
|-2-2-2-2--2-2-2-2-2------x---|
|-0-0-0-0--0-0-0-0-0---x-/11b-|
  ..................


*CHORUS*
|--------------------|---------------------|--------------------|--------------------|
|--------------------|---------------------|--------------------|--------------------|
|--------------------|---------------------|--------------------|--------------------|
|-----4-4b--4-2h4----|---------------------|------5-7b--7-5h7---|--------------------|
|--------------------|---------------------|--------------------|--------------------|
|-0----------------6~|-(6)---6/9--6--3p2-0-|-(0)--------------6~|-(6)--6/9--6--3p2-0-|

|--------------------|---------------------|--------------------|--------------------|
|--------------------|---------------------|--------------------|--------------------|
|--------------------|---------------------|--------------------|--------------------|
|-----4-4b--4-2h4----|---------------------|------5-7b--7-5-----|--------------------|
|--------------------|---------------------|----------------7---|--------------------|
|-0----------------6~|-(6)---6/9--6--3p2-0-|-(0)--------------6*|-(6)*---------------|
[ Tab from: http://www.guitartabs.cc/tabs/p/pantera/war_nerve_tab.html ]
Play 3 times
||------------------------------||
||------------------------------||
||------------------------------||
||------------------------------||
||------------------------------||
||-11b~---0--11----11b~---0--11-||

|---------------------------|
|---------------------------|
|---------------------------|
|----------------/7b---7--5-|
|-----------------x----x--x-|
|-/11b---0--11\--/5b---5--3-|

Play 3 times
||------------------------------||
||------------------------------||
||------------------------------||
||------------------------------||
||------------------------------||
||-11b~---0--11----11b~---0--11-||

|--------------------|
|--------------------|
|--------------------|
|--------------------|
|-----------9---3--3-|
|-/11b---0--7---1--1-|

*BRIDGE*
Play 2 times
||--------------------------------|--------------------------------||
||--------------------------------|--------------------------------||
||--------------------------------|--------------------------------||
||--------------------------------|--------------------------------||
||--------------------------------|--------------------------------||
||-0--3-3-3-3-3-3-3p0-3-3-3p0-3-3-|-0--3-3-3-3-3-3-3p0-3-3-3p0-3-3-||
   ...............................................................

|-----------------------------|------------------------------|
|-----------------------------|------------------------------|
|-----------------------------|------------------------------|
|-----------------------------|------------------------------|
|-----------------------7---6-|------------------------------|
|-0--0-0-0-0-0-0-2h3p2----0---|-0--0-0-0-0-0-0-5h6p5--3-0-3b-|
  ................                 ..............

 HATE MAIL        NOT READ...
|---------------|---------------|
|---------------|---------------|
|---------------|---------------|
|---------------|---------------|
|---------2-3---|---------2-3---|
|-11\---1-----1-|-11\---1-----1-|

*OUTRO*
|------------------------|-------------------------|-------------------------|
|------------------------|-------------------------|-------------------------|
|------------------------|-------------------------|-------------------------|
|------------------------|-------------------------|-------------------------|
|-2-2-2-2-2-2-2--8-8-7-5-|-2-2-2-2-2----8-8-8-7--5-|-2-2-2-2-2-2-2--8-8-7--5-|
|-0-0-0-0-0-0-0--6-6-5-3-|-0-0-0-0-0-0--6-6-6-5--3-|-0-0-0-0-0-0-0--6-6-5--3-|

|---------------------------|------|
|---------------------------|------|
|---------------------------|------|
|---------------------------|-2----|
|-2-2-2-2-2-2-2-2-3-3-3-3-3-|-2----|
|-0-0-0-0-0-0-0-0-1-1-1-1-1-|-0----|

/\/\/\/\/\/\/\/\/\/\/\/\/\/\/\/\/\/\/\/\/\/\/\/\/\/\/\/\/\/\/\/\/\/\/\/\/\/\/\/\/\/\/\/|
Well there is is... The whole War Nerve song... I dident include the solo to this song for one
reason and one reason only, there isnt a solo in this song... so... All the repets/timing might
not be right... But all the riffs are there so u can figure it out... E-mail me if ya spot any
problems... latah

TooTH-PiCK (tooth-pick@usa.net)

From: Marcus 

Tabs here.....minor correction (or maybe suggestion) here.

I'd say that the chorus riff(s) on "War Nerve" is more like this....

|-----------------------------------------------------------------|
|-----------------------------------------------------------------|
|---------------------------------------[A.H]---------------------|
|-------[A.H ]------Vib.--------------5-7b8-7-5h7--Vib.-----------|
|-----7-9b10-9-7h9--~~~~~--5-----------------------~~~~~--5-------|
|--0---------------6-----6---6-3p2-0--------------6-----6---6-3p2-|

|-----------------------------------------------------------------|
|-----------------------------------------------------------------|
|---------------------------------------[A.H]---------------------|
|-------[A.H ]------Vib.--------------5-7b8-7-5-------------------|
|-----7-9b10-9-7h9--~~~~~--5--------------------7-----------------|
|--0---------------6-----6---6-3p2-0--------------6b-(7)-(8)--(9)-|

     Wide vibrato (up and down twice)
|---------------------
|---------------------
|---------------------
|---------------------
|----^^--------^^-----
|--12--0-11--12--0-11-    And on it goes...

And one thing more...just after the intro....the four chords that follows
should be like this....

|--------------
|-------------
|-------------
|--5--5--2----
|--3--2--0--3-
|-----------1- That+s it for now....

Comments