Pantera - Walk Chords & Tabs

 

Walk Chords & Tabs

Pantera Chords & Tabs

Version: 2 Type: Tab 0 ratings
1 star 2 stars 3 stars 4 stars 5 stars
comments

Walk Tab

This is just the begginnig because I didn't agree with the other one! 
But you'll have to listen to the song for timing...

(Drop D Tuning)

. =repeat the last bar

Riff 1

D|----|---------------.|
A|-0--|---0--2--1--0--.|
D|-0--|---0--2--1--0--.|

Riff 2

D|----|---------------.|------------------2-----------------1--
A|-0--|---0--2--1--0--.|---0--2--1--0--0--2--0--2--1--0--0--1--
D|-0--|---0--2--1--0--.|---0--2--1--0--0-----0--2--1--0--0-----
[ Tab from: http://www.guitartabs.cc/tabs/p/pantera/walk_tab_ver_2.html ]
D|------------------0-.|
A|---0--2--1--0--0--0-.|
D|---0--2--1--0--0----.|

Riff 3 (PLAYED V.FAST)

D|---------------------------------------
A|--0-0-0-3-0-3-0-2-0-2-0-2-0-2-0-2-0-2--
D|--0-0-0-3-0-3-0-2-0-2-0-2-0-2-0-2-0-2--

Riff Route Map

1x16, 2x2, 3x1 then back to beginning! 

Have fun.....o a good fender setup is neck and middle pickups with
both tone controls set to 0! And if you can muster it a very clean
low distortion, so it cuts when you stop playing...

Any questions or improvement ideas to tomace@freeuk.com, cheers!
Comments