Pantera - Walk Chords & Tabs

 

Walk Chords & Tabs

Pantera Chords & Tabs

Version: 11 Type: Tab 0 ratings
1 star 2 stars 3 stars 4 stars 5 stars
comments

Walk Tab

   
PANTERA - WALK

Hi! Here is 99,9% correct tab of this song! So play hard and loud and don't let your 
sleep for a week!
Corrections: cheez@jippii.fi

Intro
E-----------------------------------------------------------------|
B-----------------------------------------------------------------|
G-----------------------------------------------------------------| 2X
D-----------------------------------------------------------------|
A-----------------------------------------------------------------|
D-0-0-2-1-0--0-2-1-0--0-2-1-0--0-2-1-0--0-2-1-0--0-2-1-0--0-2-1-0-|

E------------------------------------------------|
B------------------------------------------------|
G------------------------------------------------|
D------------------------------------------------|
A--------------8---------------6---------------4-|
D-0-0-2-1-0--0-8--0-0-2-1-0--0-6--0-0-2-1-0--0-6-|

E-------------------------|
B-------------------------|
G-------------------------|
D-------------------------|
A-------------------------|
D-0-0-0-1-0-3-0-4-0-3-0-1-|

E------------------------------------------------|
B------------------------------------------------|
G------------------------------------------------|
D------------------------------------------------|
A--------------8---------------6---------------4-|
D-0-0-2-1-0--0-8--0-0-2-1-0--0-6--0-0-2-1-0--0-6-|

E-------------------------|
B-------------------------|
G-------------------------| 2X
D-------------------------|
A-------------------------|
D-0-0-0-1-0-3-0-4-0-3-0-1-|

Verse

E---------------------------------------------------------------------|
B---------------------------------------------------------------------|
G---------------------------------------------------------------------| 2X
D---------------------------------------------------------------------|
A-----------------------------------------------------------------4-4-|
D-0-0-2-1-0--0-2-1-0--0-2-1-0--0-2-1-0--0-2-1-0--0-2-1-0--0-2-1-0-6-6-|

E----------|
B----------|
G----------|
D----------|
A-3---6--7-|
D-5---6--7-|

E---------------------------------------|
B---------------------------------------|
G---------------------------------------|
D---------------------------------------|
A---------------------------------------|
D-0-0-2-1-0--0-2-1-0--0-2-1-0--0-2-1-0--|

E----------|
B----------|
G----------|
D----------|
A-3---6--7-|
D-5---6--7-|

E---------------------------------------|
B---------------------------------------|
G---------------------------------------|
D---------------------------------------|
A---------------------------------------|
D-0-0-2-1-0--0-2-1-0--0-2-1-0--0-2-1-0--|

E------------------|
B------------------|
G------------------|
D------------------|
A-3---6---3---2--1-|
D-5---6---3---2--1-|

Chorus

E------------------------------------------------|
B------------------------------------------------|
G------------------------------------------------|
D------------------------------------------------|
A--------------8---------------6---------------4-|
D-0-0-2-1-0--0-8--0-0-2-1-0--0-6--0-0-2-1-0--0-6-|

E-------------------------|
B-------------------------|
G-------------------------|
D-------------------------|
A-------------------------|
D-0-0-0-1-0-3-0-4-0-3-0-1-|

E------------------------------------------------|
B------------------------------------------------|
G------------------------------------------------|
D------------------------------------------------|
A--------------8---------------6---------------4-|
D-0-0-2-1-0--0-8--0-0-2-1-0--0-6--0-0-2-1-0--0-6-|

E-------------------------|
B-------------------------|
G-------------------------| 2X
D-------------------------|
A-------------------------|
D-0-0-0-1-0-3-0-4-0-3-0-1-|

Verse 2 is same as the first

chorus is also the same, except play the last riff of the chorus 4 times not twice!!!

SOLO
[ Tab from: http://www.guitartabs.cc/tabs/p/pantera/walk_tab_ver_11.html ]
E-----------------------------------10----------------------|
B-12~--13~--10----10-------------------13-10----------------|
G-12~----------13----13-12-10-12-13----------13-12-10-12-13-|
D-----------------------------------------------------------|
A-----------------------------------------------------------|
D-----------------------------------------------------------|

E-10--------------12~-10-12----10-----10-10-|
B----13---------------------13----13~-------|
G--------13-12-10---------------------------|
D-------------------------------------------|
A-------------------------------------------|
D-------------------------------------------|

E-----10-14-10-14-10-14-10-14-10----10-------------|
B-13~----------------------------13----13-10-13-10-|
G--------------------------------------------------|
D--------------------------------------------------|
A--------------------------------------------------|
D--------------------------------------------------|

E---------------------------------------------------|
B----10---------------------------------------------|
G-13----13-12-10----12----10-11---10-11-10----10-11-|
D----------------12----12------------------12-------|
A---------------------------------------------------|
D---------------------------------------------------|

E-------------------------13-15-16-18------------|
B---------------------------------------3--------|
G-11--10-10-11-11-10-11~----------------3--------|
D---------------------------------------3--5-3-5-|
A------------------------------------------------|
D------------------------------------------------|

E-6-7-6---------------------------------------|
B-------8--5-6-5------------------------------|
G-----------------7-4-5-4--5-5--3-----5----12-|
D----------------------------------5-----5----|
A---------------------------------------------|
D---------------------------------------------|

E--------------------------------------------------------|
B--------------------------------------------------------|
G----12-------12-------12-------12--------12----12----12-|
D-12----12-11----11/12----12-11----11--12----12----12----|
A--------------------------------------------------------|
D--------------------------------------------------------|

E------8------10-------14-------17-16----20----20----20/10-|
B-3--7---7/10----10-13----13-16-------19----19----19-------|
G----------------------------------------------------------|
D----------------------------------------------------------|
A----------------------------------------------------------|
D----------------------------------------------------------|

E-----------------------------------------------------------------|
B-----------------------------------------------------------------|
G-----------------------------------------------------------------|
D-----------------------------------------------------------------|
A-----------------------------------------------------------------|
D-0-0-2-1-0--0-2-1-0--0-2-1-0--0-2-1-0--0-2-1-0--0-2-1-0--0-2-1-0-|

PLAY NEXT RIFF 3X

E--------------------------------------------------------------------------|
B--------------------------------------------------------------------------|
G--------------------------------------------------------------------------|
D--------------------------------------------------------------------------|
A--------------8---------------6---------------4---------------------------|
D-0-0-2-1-0--0-8--0-0-2-1-0--0-6--0-0-2-1-0--0-6---0-0-0-1-0-3-0-4-0-3-0-1-|

E------------------------------------------------|
B------------------------------------------------|
G------------------------------------------------|
D------------------------------------------------|
A--------------8---------------6---------------4-|
D-0-0-2-1-0--0-8--0-0-2-1-0--0-6--0-0-2-1-0--0-6-|

E-------------------------|
B-------------------------|
G-------------------------| 2X
D-------------------------|
A-------------------------|
D-0-0-0-1-0-3-0-4-0-3-0-1-|

Outro

E----------------------|
B----------------------|
G----------------------| Play the final riff many times!!!
D----------------------|
A-------1-0--------1-0-|
D-0-0-0-1-0--0-0-0-1-0-|

That's it! Darkness forever!!!
Comments