Pantera - Walk Chords & Tabs

 

Walk Chords & Tabs

Pantera Chords & Tabs

Version: 3 Type: Bass Tab 0 ratings
1 star 2 stars 3 stars 4 stars 5 stars
comments

Walk Bass Tab

Pantera
Walk

Dropped D Tuning
low to high GDAD

Ride in on the the low D with the drums and slide to nowhere in peticular. Then join the 
on the main riff.

G------------------------------------------------------------------------|
D------------------------------------------------------------------------|
A------------------------------------------------------------------------|
D-0--0-2/1-0---0-2/1-0---0-2/1-0---0-2/1-0---0-2/1-0---0-2/1-0---0-2/1-0-|

G------------------------------------------------------------------------|
D------------------------------------------------------------------------|
A------------------------------------------------------------------------|
D--/X--------------------------------------------------------------------|
    /
    /slide to nowhere pertucularly.

G------------------------------------------------------------------------|
D------------------------------------------------------------------------|
A----------8----------6-----------6--------------------------------------|
D--0-1/2-0----0-1/2-0-----0-1/2-0-6--------------------------------------|

G------------------------------------------------------------------------|
D------------------------------------------------------------------------|
A------------------------------------------------------------------------|
D-0-0-1-0-2-0-3-0-4-0-1-0------------------------------------------------|2x

main riff

[ Tab from: http://www.guitartabs.cc/tabs/p/pantera/walk_btab_ver_3.html ]
G------------------------------------------------------------------------|
D------------------------------------------------------------------------|
A------------------------------------------------------------------------|
D-0-0-1-0-2-0-3-0-4-0-1-0------------------------------------------------|4x

this part i know to be 100% correct. The bassline behind the solo in this song took me a 
days to figure out, but after studying with a local bass expert i got it. make sure to 
right with the drums, because the bass plays notes right with the drum fills.

G--------------------------------------------------------------------------|
D--------------------------------------------------------------------------|
A--------------------------------------------------------------------------|
D--0-0-1-0--0-0-1-0--0-0-1-0--3-1-3--0-0-1-0--0-0-1-0--0-0-1-0-8-7-6-5-4-3-|

G---------------------------------------------------------------------------|
D---------------------------------------------------------------------------|
A---------------------------------------------------------------------------|
D--0-0-1-0--0-0-1-0--0-0-1-0--3-1-3--0-0-1-0--0-0-1-0--0-0-1-0-121212121212-|
                                                                /
                                                                12's
G------------------------------------------------------------------------------------|
D------------------------------------------------------------------------------------|
A------------------------------------------------------------------------------------|
D--5-5-7-5--5-5-7-5--5-5-7-5--121212121212--5-5-7-5--5-5-7-5--5-5-7-5-121212121212/0-|

then all other basslines over again, rather repetetive.




Dunn
Comments