Pantera - Slaughtered Chords & Tabs

 

Slaughtered Chords & Tabs

Pantera Chords & Tabs

Version: 3 Type: Tab 0 ratings
1 star 2 stars 3 stars 4 stars 5 stars
comments

Slaughtered Tab

============================================================================
----------------------------------------------------------------------------
		              SLAUGHTERED - Pantera
----------------------------------------------------------------------------
                             Far Beyond Driven, 1994

Tabbed by: Josué
Email: concrete_donkey7@hotmail.com


This is it, no one else has tabbed it out as good as I have, Pantera's 
Slaughtered in all it's glorious entirety. I've included the exact timing, 
just look at the spacing.
This has gotta be one of Pantera's heaviest songs, and the lyrics are really
cool too.  According to Blistering.com, this is supposed to be Pantera's 8th
best song ever. Hmmm... anyway, that list can be viewed through this website,
just type in Pantera -> News.


Tuning: 1/2 step down or 1/4 step down
Q=156



Intro        X6         
Rhythm Figure 1:        
||--------------------------------|-------------------------------||
||--------------------------------|-------------------------------||
||--------------------------------|------------------------------*||
||------------4-------------------|--------3---------------3-----*||
||------------4-------5-------3---|--------3---------------3------||
||0-0-0-0-0-----------3-------1---|0-0-0-0-1-------0-0-0-0-1------||
  PM......................................|        PM.....|


Intro Part II    X4
Rhythm Figure 2:                                    
||--------------------------------|----------------------------------||
||--------------------------------|----------------------------------||
||--------------------------------|---------------------------------*||
||--------------------------------|---------------------------------*||
||----------------4-/-9-\-5-------|5-/-10-\-6-------6-/-11-\-7-------||
||0-0-0-0-0-0-0---2-/-7-\-3-------|3-/--8-\-4-------4-/--9-\-5-------||
  PM...........|




Verse
Rhythm Figure 1 X4




Pre-Chorus  X4
Rhythm Figure 3:        
||--------------------------------|-------------------------------||
||--------------------------------|-------------------------------||
||--------------------------------|------------------------------*||
||------------2-------3-------2---|--------5---------------7-----*||
||0-0-0-0-0---2-------1-------0---|--------5---------------7------||
||--------------------------------|5-5-5-5-3-------5-5-5-5-5------||
  PM.............................| PM.....|        PM.....| 


Chorus   X4
Rhythm Figure 4:
||--------------------------------|----------------------------------||
||--------------------------------|----------------------------------||
||--------------------------------|---------------------------------*||
||--------------------------------|---------------------------------*||
||2---2---2---2---4-/-9-\-5-------|5-/-10-\-6-------6-/-11-\-7-------||
||0---0---0---0---2-/-7-\-3-------|3-/--8-\-4-------4-/--9-\-5-------||
      PM.......|




Verse
Rhythm Figure 1 X8



Pre-Chorus
Rhythm Figure 3 X4



Chorus
Rhythm Figure 4 X4



Post Chorus  X4
Rhythm Figue 5:
||--------------------------------|-------------------------------||
||--------------------------------|-------------------------------||
||--------------------------------|------------------------------*||
||--------------------------------|6----6----6----6----6----6----*||
||--------------------------------|5----5----5----5----5----5-----||
||0-0-0-0-0-0-0-0-0-0-0-0-0-0-0-0-|4----4----4----4----4----4-----||
  PM.............................|



[ Tab from: http://www.guitartabs.cc/tabs/p/pantera/slaughtered_tab_ver_3.html ]
BRIDGE 
Q=95


Interlude X2
||--------------------------------|6-------------------------------||
||--------------------------------|4-------------------------------||
||--------------------------------|3------------------------------*||
||--------------------------------|------------------------3---3--*||
||2-------------------------------|------------------------1---1---||
||0-------------------------------|--------------------------------||
                               


Rhythm Figure 6 X4
  /----3----\ /----3----\ /----3----\ /----3----\ 
||------------------------------------------------|
||------------------------------------------------|
||------------------------------------------------|
||------------------------------------------------|
||2---2---2---1---2---2---2---2---2---1---2---2---|
||0---0---0---0---0---0---0---0---0---0---0---0---|
  PM.............................................|

  /----3----\ /----3----\ /----3----\ /----3----\ 
 |------------------------------------------------||
 |------------------------------------------------||
 |-----------------------------------------------*||
 |------------------------------------3---3---3--*||
 |2---2---2---1---2---2---2---2---2---1---1---1---||
 |0---0---0---0---0---0---0---0---0---------------||
  PM.................................|


Rhythm Figure 7  X2
(Tricky!)
PM 6th string through out-> 
  /----6----\ /----6----\ /----6----\ /----6----\                               
||------------------------------------------------|
||------------------------------------------------|
||------------------------------------------------|
||3---4---2---3-----------------------------------|
||----------------3---4---2---3-------------------|
||--0---0---0---0---0---0---0---0-3-0-4-0-2-0-3-0-|
                                              
  /----6----\ /----6----\ /----6----\ /----3----\                                  
 |------------------------------------------------||
 |------------------------------------------------||
 |-----------------------------------------------*||
 |3---4---2---3-----------------------4---4--(4)-*||
 |----------------3---4---2---3-------2---2--(2)--||
 |--0---0---0---0---0---0---0---0-3-0-------------||



Rhythm Figure 6 X2


Rhythm Figure 7 X2


Then This:
Fill   2/4
 /----5---\/----3----\ 
|----------------------|
|----------------------|
|----------------------|
|----------4---4-(-4-)-|
|----------2---2-(-2-)-|
|0-0-0-0-0-------------|




Chorus  
Rhythm Figure 4 X4


OUTRO

Rhythm Figure 4 X4 (Do Sin etc)

Rhythm Figure 5 X4 (Phil just going "RRGH")

That's it! (Feel free to post corrections in the comments area)


Happy Shredding-
Josué 2005


Please Rate!
============================================================================
I may be tabbing out Sepultura's "Desperate Cry" soon.


Does anyone know "Rise", off Vulgar Display of Power? If so, please tab it.
Same for 'tallica's "Shortest Straw"...


|---------------------------------------------------------------------|
|*You've waged your war of nerves, but you can't crush the kingdom*   |
| -Phil Anselomo, 1994                                                |   
|---------------------------------------------------------------------|


Corrections, questions, comments, hate-mail, love poems, virus's, dodgy 
pictures, complaints, secrets of the universe, if you want to add me to your
MSN etc, the email is  *concrete_donkey@hotmail.com*
============================================================================
Comments