Pantera - Slaughtered Chords & Tabs

 

Slaughtered Chords & Tabs

Pantera Chords & Tabs

Version: 2 Type: Tab 0 ratings
1 star 2 stars 3 stars 4 stars 5 stars
comments

Slaughtered Tab

Author/Artist: Pantera
Title: Slaughtered
Album: Far Beyond Driven
Transcribed by: Alex 
Email: ddwashburn@aol.com

This is as accurate as I could get it and it is just the main riff and
the ''system destroyed" riff.
Dropped D tuning

------------------------------------------------------------------------------
------------------------------------------------------------------------------
------------------------------------------------------------------------------
---------4-5------------------------------------------------------------------
---------2/3-4-5-3------3------3----------------------------------------------
-0000000-----2/3-1-0000-1-0000-1----------------------------------------------
 pm-----           pm--   pm--                                                
[ Tab from: http://www.guitartabs.cc/tabs/p/pantera/slaughtered_tab_ver_2.html ]
------------------------------------------------------------------------------
------------------------------------------------------------------------------
------------------------------------------------------------------------------
-----------------------4-4-4--------------------------------------------------
-222222222222222222222-2-2-2--------------------------------------------------
-000000000000000000000--------------------------------------------------------
 System destroyed...  Rests between each chord.                               

------------------------------------------------------------------------------
------------------------------------------------------------------------------
------------------------------------------------------------------------------
---3---4---3---3--------------------------------3---4---3---3-----------------
-------------------3---4---2---3-------3---4--------------------3---4---2-----
-1---1---1---1---1---1---1---1---0-1-0---1----1---1---1---1---1---1---1---1---
 This is fast  I think its right  sounds 99accurate to me                   

------------------------------------------------------------------------------
------------------------------------------------------------------------------
------------------------------------------------------------------------------
---------4-4-4----------------------------------------------------------------
-3-------2-2-2----------------------------------------------------------------
---0-1-0----------------------------------------------------------------------
Comments