Pantera - Regular People Chords & Tabs

 

Regular People Chords & Tabs

Pantera Chords & Tabs

Version: 3 Type: Tab 0 ratings
1 star 2 stars 3 stars 4 stars 5 stars
comments

Regular People Tab

   
join the death/black metal tab mailing list by emailing 
        

FROM THE ALBUM VULGAR DISPLAY OF POWER
"REGULAR PEOPLE-CONCEIT"
-words and music by Pantera
-tab by Matt Seifert)

P=pull off
H=hammer on
.=palm mute (mute wherever necessary)

intro (repeated e's)
Dimebag's baddest riff to date
|---------------------------------------------------------------------------
|---------------------------------------------------------------------------
.---------------------------------------------------------------------------
.------P-----H-2---H--------P-----H--P-----------P-----H-2------------------
|-----32----23--3-12-------2O----01-51--0-------32----23--3(0)----7---8---5-
|0-00----00-----------0-00----00-------3---0-00----00-----------005-006-003-    
 . ..    ..           . ..    ..           . ..    ..           ..  ..  ..
repeat 2x's
------|--------------------------------------------------------------------|
------|--------------------------------------------------------------------|
------.--------------------------------------------------------------------.
------.-2---------------2---------------2----------------------------------.
--3---|-2-----------2\--2-----------4\--2-----------5\--7-788-855-533-332--|
001-00|-0-00-00-000-3\--0-00-00-000-5\--0-00-00-000-6\--5-566-633-311-110--|
..  ..  . .. .. ...     . .. .. ...     . .. .. ...     . ... ... ... ...
       repeat 4x's

next riff is ridiculous, but rest of the riffs are here
                        "Strength Beyond Strength"

                                by Pantera
Tune all guitars down 1/2 step
Intro
-----


                                    ~~~~~
-----------------------|--------------------------------------------------
-----------------------|--------------------------------------------------
-----------------------|----2---2-----------2-------2---------------------
-----------------------|----2---2-----------2-------2---5-----------------
--7\6--6--6\5--5--5\4--|----0---0-----------0-------0---5-----------------
--5\4--4--4\3--3--3\2--|------------1-------------------3-----------------


                                

                                                  ~~~~~~
---------------------------------------|----------------------------------
---------------------------------------|----------------------------------
--2----2-------------------------------|--2---2----------2---2------------
--2----2-------------------------------|--2---2----------2---2--5---------
--0----0----------7\6--6--6\5--5--5\4--|--0---0----------0---0--5---------
------------1-----5\4--4--4\3--3--3\2--|----------1-------------3---------



--------------------------------------------------------------------------
--------------------------------------------------------------------------
--2---2-------------------------------------------------------------------
--2---2-------------------------------------------------------------------
--0---0-------7--8-8--7--8-8--7--8-8--------------------------------------
----------1---5--6-6--5--6-6--5--6-6--------------------------------------




'Pre-Chorus'
------------


              ---------P.M.--------             -----P.M.-----

-------------------------------------------------------------------------
-------------------------------------------------------------------------
-------------------------------------------------------------------------
-------------------------------------------------------------------------
--4--4--4--3-------------------------6--6--6--3--------------------------
--2--2--2--1--1-1-1-1-1-1-1-1-1-1-1--4--4--4--1--1-1-1-1-1-1-1-----------



----------------------------------P.M.----------------------------------

-------------------------------------------------------------------------
-------------------------------------------------------------------------
-------------------------------------------------------------------------
-------------------------------------------------------------------------
---------4-----6--3-----4-4-4-3-------------------------6-6-6-3----------
---3--6-----4-----------2-2-2-1--1-1-1-1-1-1-1-1-1-1-1--4-4-4-1-1-1-1-1--



-----P.M.-----

-------------------
-------------------
-------------------
-------------------
---------2-2-2---2-
--1-1-1--0-0-0---0-




Interlude
---------



---------------------------------------
---------------------------------------
---------------------------------------
---------------------------------------  play 6 times
---------------------------------------
-0h1-1--0h1-1--0h1--2p1-1-1--2p1-1-1---


After playing Interlude 6 times, play 'Pre-Chorus' again



Second Interlude
----------------


-------------------------------------
-------------------------------------
-------------------------------------
---4--2--4-----4---5---(5)-----------
---2--0--2-----2---3---(3)-----------



Pre-Solo
--------


Note:  Follows the Second Interlude



   A.H.
                     ----all use tremolo bar----
     ~~~~~~~~~~~~~
-----------------------------------------------------
-----------------------------------------------------
---12------------------------------------------------
--------------------3\------3/4---------------------- repeat 12 times
--------------------3\------1/4----------------------
--------------------1\------1/2----------------------

                Note:  strike this F
                       chord when bar
                       is down and 
                       release up to F#
                       chord





Solo
----


[ Tab from: http://www.guitartabs.cc/tabs/p/pantera/regular_people_tab_ver_3.html ]
Use harmonizer through entire solo                                 with bar
                                                                     |
                                                                     |
-------------------------------------------------------------------------
------------------------------------------------------------------4------
-----------------4^(1/2)release--------------------------------------5\--
----6--------5-6-----------------------------------------------/5--------
-------------------------------------6---------------6-----5-6-----------
-------------------------------------------------------------------------

                                                               
                                                                       
    ~~~~~~~
-----------|-------------------------------------------------------------
-----------|-------------------------------------------------------------
--(5)------|--/11--10----------------------/12--11-----------------------
-----------|-----------11--10-----------------------12--11---------------
-----------|-------------------10-9-10----------------------11--10--11---
-----------|-------------------------------------------------------------



---------------------------------------------------|---------------------
---------------------------------------------------|-------8^(1/2)---6---
----13--12--------------------13-12----------------|--7------------------
------------13--12-------------------13-12---------|-----6---------------
--------------------11-12-------------------11-12--|---------------------
---------------------------------------------------|---------------------

-----------------|-------------------------11-13p12--13-16p13p12--16p15--
------11^(1/2)---|------------12-13-12-13--------------------------------
-----------------|--13-12-13---------------------------------------------
---9-------------|-------------------------------------------------------
-----------------|-------------------------------------------------------
-----------------|-------------------------------------------------------



---16--19p16p15--19^(1)-----
----------------------------
----------------------------
----------------------------
----------------------------
----------------------------



Post-Solo
---------

Lyrics:  Hail, to the new kings...


-----P.M.------

--------------------------------
--------------------------------
--------------------------------
--------------------------------  repeat as needed
--4--2--4----4----5-----(5)-----
--2--0--2----2----3-----(3)-----



Finish out song with Interlude section followed by 'Pre-Chorus' section

The Badge
Performed by Pantera
Written by some band outta Oregon, or something like that...
Tune down 1/2


Intro/Verse:
eb|-------------------------------------------------------------------------|
Bb|-------------------------------------------------------------------------|
Gb|*-----------------------------------------------------------------------*|
Db|*-----------------------------------------------------------------------*|
Ab|-2---------------------------9---9---2-----------------------------------|
Eb|-0---0-0-0-0-0-0-0-0-0-0-0-0-7---7---0---0-0-0-0-0-0-0-0-6p5p4---2h3-2h3-|
        pm^^^^^^^^^^^^^^^^^^^^^             pm^^^^^^^^^^^^^

eb|-------------------------------------------------------------------------|
Bb|-------------------------------------------------------------------------|
Gb|-------------------------------------------------------------------------|
Db|-2---------------------------3---3---2-----------------------------------|
Ab|-0---0-0-0-0-0-0-0-0-0-0-0-0-1---1---0---0-0-0-0-0-0-0-0?????????????????|
Eb|-------------------------------------------------------------------------|
        pm^^^^^^^^^^^^^^^^^^^^^                          HELP!^^^^^^^^^^^^^

Then F#, G, F#, E(pm)

Bridge (hehe, it's a Clapton joke):

A, Ab, G, A#, (?)   (all "power chords")


Solo Chords:

D, Db, G, C, C#, D    (all "power chords")


End (grab a baseball bat and find a KROQ fan...)

eb|-----------------------------------------------------------|
Bb|-----------------------------------------------------------|
Gb|*---------------------------------------------------------*|
Db|*---------------------------------------------------------*|
Ab|-----------3-----------4-----------5-----------6---7---8---|
Eb|---0-0-0-0-1---0-0-0-0-2---0-0-0-0-3---0-0-0-0-4---5---6---|

The something else.  Last two chords are G, then E.

"I'll kill you, I'll kill you..."


   Obviuosly, this is far from complete TAB, but hopefully it'll help you
out.  Doesn't the beginning of that solo just yell "Space ACE" Frehley? 
Hehe.  Anyway, would someone be kind enough to complete the Wall, I mean
TAB...



Subject: Corrections to TAB for THE BADGE(PanterA)

if any of you got the original posting of the Badge, I made some corrections
with sound exactly like the record. at the end of the first line the original,
the music reads 6-5-4 2h3-2h3, and it should be 6-5-3 2h3-2h3.  The ???????????
section when the riff goes to a palm-muted A should go
e|-------------------
b|-------------------
g|-------------------
D|---2-0-------------
A|-------3-2~~-------    ( the ~~ stuff is slight vibrato)
E|-------------3p2---
(flat tuning)
  Also I don't know how to write it exactly, but at the end of the song, when
  Phil Anselmo screams "riot" the riff previously written is almost right, but
  the first sequence of 0-0-0-0 on the E-string is longer than the rest, an
  extra pick or two.  Hope this is useful to someone
Comments