Pantera - Pre Hibernation Chords & Tabs

 

Pre Hibernation Chords & Tabs

Pantera Chords & Tabs

Version: 1 Type: Bass Tab 0 ratings
1 star 2 stars 3 stars 4 stars 5 stars
comments

Pre Hibernation Bass Tab

Song: Pre Hibernation - Pantera
	Bass Tab for the "Jellyfishing Song"
Off the Spongebob Squarepants Album
   
Tabbed By Kurt Zimmerman
 
   *Tune E Down To Eb

 G:|---------------------------|---------------------------|
 D:|---------------------------|---------------------------|
 A:|---------------------------|---------------------------|
Eb:|-0-------------------------|-0-------------------------|

 G:|---------------------------|---------------------------|
 D:|---------------------------|---------------------------|
 A:|---------------------------|---------------------------|
Eb:|-0-------------------------|-0-------------------------|
 
 G:|---------------------------|---------------------------|
 D:|---------------------------|---------------------------|
 A:|---------------------------|---------------------------|
Eb:|-0-------------------------|-0-------------------------|

 G:|---------------------------|---------------------------|
 D:|---------------------------|---------------------------|
Ab:|---------------------------|---------------------------|
Eb:|-0-------------------------|-0-------------------------|

 G:|---------------------------|---------------------------|
 D:|---------------------------|---------------------------|
 A:|---------------------------|---------------------------|
Eb:|-00-0-0-000-4-3------------|-00-0-0-000-4-3------------|

 G:|---------------------------|---------------------------|
 D:|---------------------------|---------------------------|
 A:|---------------------------|---------------------------|
Eb:|-00-0-0-000-4-3------------|-00-0-0-000-4-3------------|
 
 G:|---------------------------|---------------------------|
 D:|---------------------------|---------------------------|
 A:|---------------------------|---------------------------|
Eb:|-00-0-0-000-4-3------------|-00-0-0-000-4-3------------|

 G:|---------------------------|---------------------------|
 D:|---------------------------|---------------------------|
 A:|---------------------------|---------------------------|
Eb:|-00-0-0-000-4-3------------|-00-0-0-000-4-3------------|
 
 G:|-------------------------------------------------------|
 D:|-------------------------------------------------------|
 A:|-------------------------------------------------------|
Eb:|-00----------------------------------------------------|
[ Tab from: http://www.guitartabs.cc/tabs/p/pantera/pre_hibernation_btab.html ]
 G:|-------------------------------------------------------|
 D:|-------------------------------------------------------|
 A:|-------------------------------------------------------|
Eb:|-00----------------------------------------------------|

 G:|-------------------------------------------------------|
 D:|-------------------------------------------------------|
 A:|-------------------------------------------------------|
Eb:|-00----------------------------------------------------|

 G:|-------------------------------------------------------|
 D:|-------------------------------------------------------|
 A:|-------------------------------------------------------|
Eb:|-00----------------------------------------------------|

 G:|---------------------------|---------------------------|
 D:|---------------------------|---------------------------|
 A:|---------------------------|---------------------------|
Eb:|-00-0-0-000-4-3------------|-00-0-0-000-4-3------------|

 G:|---------------------------|---------------------------|
 D:|---------------------------|---------------------------|
 A:|---------------------------|---------------------------|
Eb:|-00-0-0-000-4-3------------|-00-0-0-000-4-3------------|

 G:|---------------------------|---------------------------|
 D:|---------------------------|---------------------------|
 A:|---------------------------|---------------------------|
Eb:|-0-------------------------|-0-------------------------|

 G:|---------------------------|---------------------------|
 D:|---------------------------|---------------------------|
 A:|---------------------------|---------------------------|
Eb:|-0-------------------------|-0-------------------------|

 G:|---------------------------|---------------------------|
 D:|---------------------------|---------------------------|
 A:|---------------------------|---------------------------|
Eb:|-0-------------------------|-0-------------------------|

 G:|---------------------------|------------------------------|
 D:|---------------------------|------------------------------|
Ab:|---------------------------|------------------------------|
Eb:|-0-------------------------|-0-----------------------4-3-4|

 G:|------------------------------|-----------------------------|
 D:|------------------------------|-----------------------------|
 A:|------------------------------|-----------------------------|
Eb:|-0-0-0-0-04-3-4-0-0-0-0-04-3-4|0-0-0-0-04-3-4-0-0-0-0-04-3-4|

 G:|------------------------------|-----------------------------|
 D:|------------------------------|-----------------------------|
 A:|------------------------------|-----------------------------|
Eb:|-0-0-0-0-04-3-4-0-0-0-0-04-3-4|0-0-0-0-0-33-0---------------|
Comments