Pantera - No Good Attack The Radical Chords & Tabs

 

No Good Attack The Radical Chords & Tabs

Pantera Chords & Tabs

Version: 1 Type: Tab 0 ratings
1 star 2 stars 3 stars 4 stars 5 stars
comments

No Good Attack The Radical Tab

   
No Good (Attack the Radical)
By Pantera
From the album Vulgar Display of Power

<>

Drop D Tuning
Intro

 |------------------------------------------------------------|
 |------------------------------------------------------------|
 |------------------------------------------------------------|
 |-------------------------3--------------------------3-------|
 |----------------0--3H5------------------0--3H5--------------|
 |-----0--3H5-----------------0--3H5--------------------------|

    2nd Half of Intro (Play Twice)
 |---------------------------------------------------------------|
 |---------------------------------------------------------------|
 |---------------------------------------------------------------|
 |---------------------------------------------------------------|
 |-----------------------------------------------3h5--3h5--------|
 |--3--4H5--3b--0----0--3h5--3b--0-------------------------------|


 |--------------------------------------------------------------|
 |--------------------------------------------------------------|
 |--------------------------------------------------------------|
 |--------------------------------------------------------------|
 |--------------------------------------------------------------|
 |-----3--4H5--3b--0-----0--3h5--3b--0--5/7--3------------------|


 |----------------------------------------------------------|
 |----------------------------------------------------------|
 |----------------------------------------------------------|
 |------------------------------------------------------3---|
 |----------------------------------------------3--5--------|
 |--3--4H5--3b--0------0--3--0--3--5------------------------|


 |------------------------------------------------------------------|
 |------------------------------------------------------------------|
 |------------------------------------------------------------------|
 |------------------------------------------------------------------|
 |------------------------------------------------------------------|
 |----3--4H5--3b--0-----0--3h5--3b--0--5/7--3----0------------------|

  Rest for two Bars

In the states there's a problem with race because of ignorant past burned
fires
From evolution we've killing each other I'd figure man should have it down to
a science



|-----------------------------------------------------------------------------
|-----------------------------------------------------------------------------
|-----------------------------------------------------------------------------
|-----------------------------------------------------------------------------
|------5/7---3----1-1--1-1--1-1--1-1----44--44----1-1--1-1--1-1--1-1---5--6---
|------5/7---3----1-1--1-1--1-1--1-1----44--44----1-1--1-1--1-1--1-1---5--6---


Times
No chance, not for a minute
not for a second I won't be defensive, I'm straight out, in my opinion,
You'd better listen to a man who knows what he's saying.
I've seen your side, you run and hide, for meer fact that you feel
[ Tab from: http://www.guitartabs.cc/tabs/p/pantera/no_good_attack_the_radical_tab.html ]
|-----------------------------------------------------------------------------
-----------|
|-----------------------------------------------------------------------------
-----------|
|-----------------------------------------------------------------------------
-----------|
|-----------------------------------------------------------------------------
-----------|
|-----1-1--1-1--1-1--1-1----44--44----1-1--1-1--1-1--1-1-----5/7--3-----------
|
|-----1-1--1-1--1-1--1-1----44--44----1-1--1-1--1-1--1-1-----5/7--3-----------
|

           inferior, be superior, and know your interior.

Pre-Chorus
------------------------------------------------

|-----------------------------------------------------------------------------
------------------------|
|-----------------------------------------------------------------------------
------------------------|
|-----------------------------------------------------------------------------
------------------------|
|-----------------------------------------------------------------------------
------------------------|
|---5/7--77---5/7--77---5/7--77--10--5-----------5/7--77---5/7--77---5/7--77--
-3--5-----|
|---5/7--77---5/7--77---5/7--77--10--5-----------5/7--77---5/7--77---5/7--77--
-3--5-----|
  
   Race, pride, prejudice....                          Blackman, whiteman, no
stand

|----------------------------------------------------------------------------------------------------|
|----------------------------------------------------------------------------------------------------|
|----------------------------------------------------------------------------------------------------|
|----------------------------------------------------------------------------------------------------|
|---5/7--77---5/7--77---5/7--77--10--5----------5/7--77---5/7--77---5/7--77--10--11------------------|
|---5/7--77---5/7--77---5/7--77--10--5----------5/7--77---5/7--77---5/7--77--10--11------------------|

  Live in the past, we make it last, a hated mass         No solution, mind
polution, for revolution.

(Play 2nd half of intro for chorus)
-------------------------------------------------------------------
So low , behold my eyes,
This land of fools will rise.
No good, for no one,
No good, for no one.

2nd verse ( repeat TAB as above)
-----------------------------------------------------------------
You blame the oppession and play the role of criminals,
To rape and burn, progress is minimal.
White hoods and militants, you know it's such a pity,
Living, breathing, violence in your city.

If one man, had one home, in one world,
He'd live alone without variety, full of anxiety, 
No one to point at, question or even talk to in his private grave
No matter what color, he wouldn't be saved from hell, he dwells,
A closed mind playing the part of prison cells.

Pre-chorus
Chorus 
1st half of intro


|--------------------------------------------------------------------------------------------|
|--------------------------------------------------------------------------------------------|
|--------------------------------------------------------------------------------------------|
|--------------------------------------------------------------------------------------------|
|----011111111111-3/4---011111111111-3/4---011111111111-3/4---11-11--------------------------|
|----011111111111-3/4---011111111111-3/4---011111111111-3/4---11-11--------------------------|
                                                                      (twice)
Chorus
Repeat TAB after solo
Fade Out

Follow album for timing, ect.
No solo yet, will send later. 
thanks,
              Rich
Comments