Pantera - Mouth For War Chords & Tabs

 

Mouth For War Chords & Tabs

Pantera Chords & Tabs

Version: 2 Type: Tab 0 ratings
1 star 2 stars 3 stars 4 stars 5 stars
comments

Mouth For War Tab

   
MOUTH FOR WAR - PANTERA
=======================

RIFF A

E|-------------------|-------------------|
B|-------------------|-------------------|
G|-------------------|-------------------|
D|-----------4-------|---------4---4---4-|
A|-0-1-2-2-2-2-2-2-2-|-0-1-2-2-2-2-2-2-2-|
E|-------------------|-------------------|

Palm mute the A-0-1-2-2-2 and every time you play the second fret by itself
(no palm muting on the power chords)

RIFF B

E|-----------------------------|
B|-----------------------------|
G|-----------------------------|
D|-----------------------------|
A|-----5/9---5---5/9---5/9---5-|
E|-0-0-3/7-0-3-0-3/7-0-3/7-0-3-|

RIFF C

E|-------------------------------------------------------*-*-*-*-|
B|-------------------------------------------------------*-*-*-*-|
G|-------------------------------------------------------*-*-*-*-|
D|-------------------------------------------------------*-*-*-*-|
A|-----8---9/10--7/9---5---5/7---4/5---8---9/10--7/9---5---------|
E|-0-0-6-0-7/8-0-5/7-0-3-0-3/5-0-2/3-0-6-0-7/8-0-5/7-0-3---------|

The *s are REALLY high harmonics, around where the 28th fret would be.

RIFF D
[ Tab from: http://www.guitartabs.cc/tabs/p/pantera/mouth_for_war_tab_ver_2.html ]
E|-------------------------------------|
B|-------------------------------------|
G|-------------------------------------|
D|-----------------------------2-------|
A|---------2-------6-5-4-2-2---2-7-6-5-|
E|-2h4-4-4---4-4-4-----------2-0-------|

RIFF E

E|-----------|
B|-----------|
G|-----------|
D|-----------|
A|-6-6-6/4/6-|
E|-4-4-4/2/4-|

RIFF F

     |  -    Palm Muting   -     |       |   -   Palm Muting    -    |
E|-----------------------------------|-----------------------------------|
B|-----------------------------------|-----------------------------------|
G|-----------------------------------|-----------------------------------|
D|---------------------------------0-|-----------------------------------|
A|---------------------------------2-|---------------------------------3-|
E|-2-4-4-4-4-4-4-4-4-4-4-4-4-4-4-4---|-2-4-4-4-4-4-4-4-4-4-4-4-4-4-4-4-5-|

That's the entire song, except for the solo, which I'm not even gonna try. You
can listen to the MP3 to figure out the timing. Have fun and if you have any 
questions send them to me at:

wolfman84@hotmail.com

Thanks to Brian, my guitar teacher who taught me this song.
Comments