Pantera - Mouth For War Chords & Tabs

 

Mouth For War Chords & Tabs

Pantera Chords & Tabs

Version: 3 Type: Bass Tab 0 ratings
1 star 2 stars 3 stars 4 stars 5 stars
comments

Mouth For War Bass Tab

Pantera
Mouth For War 
BASS TAB

Tabbed by pjpowers


Intro/Pre Chorus
F# ||--------------------------------------||    ||
C# ||-o-----------------------------------o||    ||
G# ||-o-----------------------------------o||    ||
D# ||---5-6-7-7-7-7-7-7-7-7-0-5-6-7-0-7-7--||    ||-7\0



Chorus
||-----------------------||       ||---------------||
||o---------------------o||       ||---------------||
||o---------------------o||       ||---------------||
||-0-0/7-0-3-0/7-0/7-0-3-||       ||-0-0/7-0-3-7/0-||

[ Tab from: http://www.guitartabs.cc/tabs/p/pantera/mouth_for_war_btab_ver_3.html ]
Verse
||---------------------------------------------------------||
||o-------------------------------------------------------o||
||o-------------------------------------------------------o||
||-0-06-07-8-0-5-6-0-3-0-3-5-0-2-3-0-06-07-8-0-5-6-0-3-||


Solo
||-------------------------------------------||
||o-----------------------------------------o||
||o---------2-------6-5-4-2-2-2-------7-6-5-o||
||--2-4-4-4--4-4-4-------------0-0-0--------||



||---------------------------||
||---------------------------||
||---------------------------||
||-4-4-0-2-4-4-0-2-4-4-0-2-4-||



||------------------------------------------------------------------------||
||o----------------------------------------------------------------------o||
||o-----------------------(2----------)-------------------------(0-----)-o||
||-4-4-4-4-4-4-4-4-4-4-4-4---------------4-4-4-4-4-4-4-4-4-4-4-4----------||
Comments