Pantera - Im Broken Chords & Tabs

 

Im Broken Chords & Tabs

Pantera Chords & Tabs

Version: 6 Type: Tab 0 ratings
1 star 2 stars 3 stars 4 stars 5 stars
comments

Im Broken Tab

   
Tunning: Standard

Key:  h = hammer on
      b = bend
      p = pull off
      / = slide up
      \ slide down
      ~ = tremolo
INTRO       PLAY 4x     PLAY 4x               (1rst,3rd)      (2nd)       (4th)
|---------------------|--------------------|------------|-------------|-------------
|---------------------|--------------------|------------|-------------|-------------
|o-------------------o|o-------------------|-----------o|---------7~--|-------------
|o-0h2-0h2-0---------o|o-0h2-0h2-0---------|-----7-5~--o|-----7/9-----|-2-2--2-2--2-
|------------2p0------|-----------2p0------|-7-5--------|-7-5---------|-2-2--2-2--2-
|----------------3-0--|---------------3-0--|------------|-------------|-0-0--0-0--0-

[ Tab from: http://www.guitartabs.cc/tabs/p/pantera/im_broken_tab_ver_6.html ]
Verse Riff play a bunch of times      Fill
|--------------------------------|------------|----------------------|
|--------------------------------|------------|----------------------|
|o------------------------------o|------------|o--------------------o|
|o------------------------------o|---------5--|o--------------------o|
|--------------------------------|------------|-5b-5b-----5b-5b------|
|-5b-5b-0-0-5b-5b-0-0-5b-5b-0-0--|-4-5-6-7----|-------0-0-------0-0--|


Part after verse
|-----------------------|
|-----------------------|
|-----------------------|
|-----------------------|
|-----------------------|
|-5-6-5-3-0--2-3-2-1-0--|

Then play the intro/chorus


This is the riff you fade out on
|--------------------------------|
|--------------------------------|
|--------------------------------|
|--------------------------5-----|
|-2-2--2-2--2-2--------------7\--|
|-0-0--0-0--0-0--7-6-5-6-7-------|
Comments