Pantera - Im Broken Chords & Tabs

 

Im Broken Chords & Tabs

Pantera Chords & Tabs

Version: 5 Type: Tab 0 ratings
1 star 2 stars 3 stars 4 stars 5 stars
comments

Im Broken Tab

                                 I'm Broken
                          By Pantera: Far Beyond Driven


Note!! This uses dropped D tuning - ie, low to hi: D A D G B E.


Intro                  After intro 
----------------------|--------------------------------------|----------------
----------------------|--------------------------------------|----------------
----------------------|--------------------------------------|----------------
----------------------|-------------------------------3h5p3--|----------------
3h5--3h5--3p0---------|--3h5--3h5--3p0---------3h5p3---------|--3h5--3h5--3---
---------------5p3p0--|-----------------5p3p0----------------|----------------

[ Tab from: http://www.guitartabs.cc/tabs/p/pantera/im_broken_tab_ver_5.html ]
                           Verse             Bridge               Verse
--------------------------|-----------------|--------------------|------------
--------------------------|-----------------|--------------------|------------
-----------------------5--|-----------------|--------------------|------------
------------------5p7-----|--5--5-----0--0--|--------------------|--11--11----
p0---------3h5p3----------|--5--5-----0--0--|--0--------0--6--4--|--11--11----
----5p3p0-----------------|--5--5-----0--0--|-----5--3-----------|--11--11----


          Chorus/Bridge? (also bassline under solo.)
---------|--------------------------------|-----------------------------------
---------|--------------------------------|-----------------------------------
---------|--------------------------------|-----------------------------------
---0--0--|--------------------------------|-----------------------------------
---0--0--|--------------------------------|-----------------------------------
---0--0--|--5--6--5--3--2-----2--3--2--1--|-----------------------------------
Comments