Pantera - Hollow Chords & Tabs

 

Hollow Chords & Tabs

Pantera Chords & Tabs

Version: 3 Type: Tab 0 ratings
1 star 2 stars 3 stars 4 stars 5 stars
comments

Hollow Tab

Hollow by PANTERA
Tabbed by: KoRny Freak 
Rhythm (clean) >--What's Left Inside-< >-No one knows what's done is done--<
|-----------------------------|-----------------------------------------------|
|----0------0------0------0---|----0-----0-----0-----0------0-----0------0----|
|---5-5----5-5----5-5----5-5--|---5-5---5-5---5-5---5-5----5-5---5-5----5-5---|
|--2---2--2---2--2---2--2---2-|--2---2-2---2-----0-----0------0-----0--2---2--|
|-0------3-------------0------|--------------3-----3------2-----2-------------|
|---------------3-------------|-0-----0-----2-----2------3-----3------0-----0-|

Lead (use neck pickup to get warm tone)
|----------------------------------------|-------------------------------------|
|------------------12-15~~-15/\--15/\-12-|----------------12---11~~---9/\/\----|
|-----------12~~-12----------------------|---------12~~-12---9------7-------10-|
|--------14------------------------------|-------14----------------------------|
|15~~-15---------------------------------|15~~-15------------------------------|
|----------------------------------------|-------------------------------------|

2nd Lead
|--------------------------------5---------------------------------------------|
|-8/\5-8~~--8/\5---5-----------5--8^5---5-----------5--------------------------|
|----------------8---8-7-5-7-8--------8---8-7-5-7-8---8-7-5---5----------------|
|-----------------------------------------------------------7---7--------------|
|-------------------------------------------------------------------7-6-565--3-|
|------------------------------------------------------------------------------|
[ Tab from: http://www.guitartabs.cc/tabs/p/pantera/hollow_tab_ver_3.html ]
|--------------------------------------------------------------|
|------20-20-20-------------20-20-20-----------20/\-20-20/^----|
|-19/\----------19/\--19~~-----------19/\-19~~-----------------|
|--------------------------------------------------------------|
|--------------------------------------------------------------|
|--------------------------------------------------------------|

Pre Bridge      >--He as hollow as I alone now.....--<
|-----------------------------------|---------------------------|
|-----------------------------------|---------------------------|
|---0------0------0-----------------|---0---0---0---0--0--0-----|
|--4-4----4-4----4-4-------0--0-----|--5---4---2---2------------|
|-2---2--2---2--2---2-----2---------|-7---5---4---3---2---------|
|0------0------0---------3---1--1-0-|--------------------3--1-0-|

Bridge   >--He as hollow as I alone, a shell of my friend....--<
|---------------|-----------------|-----------------------------|
|---------------|-----------------|-----------------------------|
|---------------|-----------------|-----------------------------|
|2-2-2-4-5-6-7--|--2-2-2-7-8-9-10-|-----------------------------|
|2-2-2-4-5-6-7--|--2-2-2-7-8-9-10-|-----------------------------|
|0-0-0-2-3-4-5--|--0-0-0-5-6-7-8--|0-8-0-0-6-0-0-8-0-0-6-0-0-6~-|

After Lyrics
|------------------------------|-------------------------------|
|------------------------------|-------------------------------|
|------------------------------|-------------------------------|
|------------------------------|-------------------------------|
|------------------------------|-------------------------------|
|-0-8-0-0-6-0-0-8-0-0-6-0-0-6~-|-0-8-0-0-6-0-0-8-0-0-6-6-7-8~--|

End                                 Harmonics
|-------------------------------|---------12------|
|-------------------------------|-----5-----------|
|---0---0---0---0--0--0---------|--7--------------|
|--5---4---2---2----------2-----|-----------------|
|-7---5---4---3---2-------2-----|-----------------|
|--------------------3--1-0-----|-----------------|

if you have any questions or comments, email me at 
silverchair_surfing_bird@hotmail.com



_________________________________________________________________
Get your FREE download of MSN Explorer at http://explorer.msn.com/intl.asp



Comments