Pantera - Hard Lines Sunken Cheeks Chords & Tabs

 

Hard Lines Sunken Cheeks Chords & Tabs

Pantera Chords & Tabs

Version: 1 Type: Tab 0 ratings
1 star 2 stars 3 stars 4 stars 5 stars
comments

Hard Lines Sunken Cheeks Tab

Pantera
Hard Lines, Sunken Cheeks
Far Beyond Driven
Transcribed by Mike Kimball
[bloodmetalcontent@yahoo.com]
[geocities.com/bloodmetalcontent]

As with all guitar tablature, a mono-spaced font
(e.g. Courier or Monaco) is required to display properly...

[Tune all six strings down - C# tuning.]
[ Tab from: http://www.guitartabs.cc/tabs/p/pantera/hard_lines_sunken_cheeks_tab.html ]
Fig. 1
|---------------------------------0------------------------
|------------------------------------0---------------------
|-----------6--------------6---7-----------------6---------
|--------5--------------5---------------------5-------5----
|-----7--------------7---------------------7-------------7-
|--0--------------0---------------------0------------------

|----------------------------------------------------------
|----------------------------------------------------------
|-----------------------------------6---------------6---7--
|--------5--------5--------------5---------------5---------
|-----7--------7--------------7---------------7------------
|--6--------5--------/8----0---------------0---------------

Comments